 0
SECTION
 2
ENTITIES
  0
LINE
 8
Layer0
10
0.125
20
1.25
30
0.0
11
0.087151505263767
21
1.15002095885546
31
0.0
  0
LINE
 8
Layer0
10
0.087151505263767
20
1.15002095885546
30
0.0
11
0.0559586395688372
21
1.0477696881948
31
0.0
  0
LINE
 8
Layer0
10
0.0559586395688372
20
1.0477696881948
30
0.0
11
0.0315564020022547
21
0.943688719599549
31
0.0
  0
LINE
 8
Layer0
10
0.0315564020022547
20
0.943688719599549
30
0.0
11
0.0140504026040047
21
0.838228503370634
31
0.0
  0
LINE
 8
Layer0
10
0.0140504026040047
20
0.838228503370634
30
0.0
11
0.00351640529907105
21
0.731845459031977
31
0.0
  0
LINE
 8
Layer0
10
0.00351640529907105
20
0.731845459031977
30
0.0
11
2.22044604925031e-016
21
0.625
31
0.0
  0
LINE
 8
Layer0
10
2.22044604925031e-016
20
0.625
30
0.0
11
0.00351640529907127
21
0.518154540968024
31
0.0
  0
LINE
 8
Layer0
10
0.00351640529907127
20
0.518154540968024
30
0.0
11
0.0140504026040045
21
0.411771496629366
31
0.0
  0
LINE
 8
Layer0
10
0.0140504026040045
20
0.411771496629366
30
0.0
11
0.0315564020022547
21
0.306311280400451
31
0.0
  0
LINE
 8
Layer0
10
0.0315564020022547
20
0.306311280400451
30
0.0
11
0.0559586395688372
21
0.202230311805202
31
0.0
  0
LINE
 8
Layer0
10
0.0559586395688372
20
0.202230311805202
30
0.0
11
0.0871515052637668
21
0.0999790411445443
31
0.0
  0
LINE
 8
Layer0
10
0.0871515052637668
20
0.0999790411445443
30
0.0
11
0.125
21
2.22044604925031e-016
31
0.0
  0
LINE
 8
Layer0
10
0.125
20
2.22044604925031e-016
30
0.0
11
2.875
21
4.44089209850063e-016
31
0.0
  0
LINE
 8
Layer0
10
2.875
20
1.25
30
0.0
11
2.91284849473623
21
1.15002095885546
31
0.0
  0
LINE
 8
Layer0
10
2.91284849473623
20
1.15002095885546
30
0.0
11
2.94404136043116
21
1.0477696881948
31
0.0
  0
LINE
 8
Layer0
10
2.94404136043116
20
1.0477696881948
30
0.0
11
2.96844359799775
21
0.943688719599549
31
0.0
  0
LINE
 8
Layer0
10
2.96844359799775
20
0.943688719599549
30
0.0
11
2.985949597396
21
0.838228503370634
31
0.0
  0
LINE
 8
Layer0
10
2.985949597396
20
0.838228503370634
30
0.0
11
2.99648359470093
21
0.731845459031977
31
0.0
  0
LINE
 8
Layer0
10
2.99648359470093
20
0.731845459031977
30
0.0
11
3.0
21
0.625
31
0.0
  0
LINE
 8
Layer0
10
3.0
20
0.625
30
0.0
11
2.99648359470093
21
0.518154540968024
31
0.0
  0
LINE
 8
Layer0
10
2.99648359470093
20
0.518154540968024
30
0.0
11
2.985949597396
21
0.411771496629367
31
0.0
  0
LINE
 8
Layer0
10
2.985949597396
20
0.411771496629367
30
0.0
11
2.96844359799775
21
0.306311280400451
31
0.0
  0
LINE
 8
Layer0
10
2.96844359799775
20
0.306311280400451
30
0.0
11
2.94404136043116
21
0.202230311805203
31
0.0
  0
LINE
 8
Layer0
10
2.94404136043116
20
0.202230311805203
30
0.0
11
2.91284849473623
21
0.0999790411445443
31
0.0
  0
LINE
 8
Layer0
10
2.91284849473623
20
0.0999790411445443
30
0.0
11
2.875
21
4.44089209850063e-016
31
0.0
  0
LINE
 8
Layer0
10
2.875
20
1.25
30
0.0
11
0.125
21
1.25
31
0.0
  0
LINE
 8
Layer0
10
0.4375
20
0.625
30
0.0
11
0.435370364143067
21
0.641176190318908
31
0.0
  0
LINE
 8
Layer0
10
0.435370364143067
20
0.641176190318908
30
0.0
11
0.429126587736528
21
0.65625
31
0.0
  0
LINE
 8
Layer0
10
0.429126587736528
20
0.65625
30
0.0
11
0.419194173824159
21
0.669194173824159
31
0.0
  0
LINE
 8
Layer0
10
0.419194173824159
20
0.669194173824159
30
0.0
11
0.40625
21
0.679126587736528
31
0.0
  0
LINE
 8
Layer0
10
0.40625
20
0.679126587736528
30
0.0
11
0.391176190318908
21
0.685370364143067
31
0.0
  0
LINE
 8
Layer0
10
0.391176190318908
20
0.685370364143067
30
0.0
11
0.375
21
0.6875
31
0.0
  0
LINE
 8
Layer0
10
0.375
20
0.6875
30
0.0
11
0.358823809681093
21
0.685370364143067
31
0.0
  0
LINE
 8
Layer0
10
0.358823809681093
20
0.685370364143067
30
0.0
11
0.34375
21
0.679126587736528
31
0.0
  0
LINE
 8
Layer0
10
0.34375
20
0.679126587736528
30
0.0
11
0.330805826175841
21
0.669194173824159
31
0.0
  0
LINE
 8
Layer0
10
0.330805826175841
20
0.669194173824159
30
0.0
11
0.320873412263473
21
0.65625
31
0.0
  0
LINE
 8
Layer0
10
0.320873412263473
20
0.65625
30
0.0
11
0.314629635856933
21
0.641176190318908
31
0.0
  0
LINE
 8
Layer0
10
0.314629635856933
20
0.641176190318908
30
0.0
11
0.3125
21
0.625
31
0.0
  0
LINE
 8
Layer0
10
0.3125
20
0.625
30
0.0
11
0.314629635856933
21
0.608823809681093
31
0.0
  0
LINE
 8
Layer0
10
0.314629635856933
20
0.608823809681093
30
0.0
11
0.320873412263473
21
0.59375
31
0.0
  0
LINE
 8
Layer0
10
0.320873412263473
20
0.59375
30
0.0
11
0.330805826175841
21
0.580805826175841
31
0.0
  0
LINE
 8
Layer0
10
0.330805826175841
20
0.580805826175841
30
0.0
11
0.34375
21
0.570873412263473
31
0.0
  0
LINE
 8
Layer0
10
0.34375
20
0.570873412263473
30
0.0
11
0.358823809681093
21
0.564629635856933
31
0.0
  0
LINE
 8
Layer0
10
0.358823809681093
20
0.564629635856933
30
0.0
11
0.375
21
0.5625
31
0.0
  0
LINE
 8
Layer0
10
0.375
20
0.5625
30
0.0
11
0.391176190318908
21
0.564629635856933
31
0.0
  0
LINE
 8
Layer0
10
0.391176190318908
20
0.564629635856933
30
0.0
11
0.40625
21
0.570873412263473
31
0.0
  0
LINE
 8
Layer0
10
0.40625
20
0.570873412263473
30
0.0
11
0.419194173824159
21
0.580805826175841
31
0.0
  0
LINE
 8
Layer0
10
0.419194173824159
20
0.580805826175841
30
0.0
11
0.429126587736528
21
0.59375
31
0.0
  0
LINE
 8
Layer0
10
0.429126587736528
20
0.59375
30
0.0
11
0.435370364143067
21
0.608823809681093
31
0.0
  0
LINE
 8
Layer0
10
0.435370364143067
20
0.608823809681093
30
0.0
11
0.4375
21
0.625
31
0.0
  0
LINE
 8
Layer0
10
1.8125
20
0.625
30
0.0
11
1.81037036414307
21
0.641176190318908
31
0.0
  0
LINE
 8
Layer0
10
1.81037036414307
20
0.641176190318908
30
0.0
11
1.80412658773653
21
0.65625
31
0.0
  0
LINE
 8
Layer0
10
1.80412658773653
20
0.65625
30
0.0
11
1.79419417382416
21
0.669194173824159
31
0.0
  0
LINE
 8
Layer0
10
1.79419417382416
20
0.669194173824159
30
0.0
11
1.78125
21
0.679126587736528
31
0.0
  0
LINE
 8
Layer0
10
1.78125
20
0.679126587736528
30
0.0
11
1.76617619031891
21
0.685370364143067
31
0.0
  0
LINE
 8
Layer0
10
1.76617619031891
20
0.685370364143067
30
0.0
11
1.75
21
0.6875
31
0.0
  0
LINE
 8
Layer0
10
1.75
20
0.6875
30
0.0
11
1.73382380968109
21
0.685370364143067
31
0.0
  0
LINE
 8
Layer0
10
1.73382380968109
20
0.685370364143067
30
0.0
11
1.71875
21
0.679126587736528
31
0.0
  0
LINE
 8
Layer0
10
1.71875
20
0.679126587736528
30
0.0
11
1.70580582617584
21
0.669194173824159
31
0.0
  0
LINE
 8
Layer0
10
1.70580582617584
20
0.669194173824159
30
0.0
11
1.69587341226347
21
0.65625
31
0.0
  0
LINE
 8
Layer0
10
1.69587341226347
20
0.65625
30
0.0
11
1.68962963585693
21
0.641176190318908
31
0.0
  0
LINE
 8
Layer0
10
1.68962963585693
20
0.641176190318908
30
0.0
11
1.6875
21
0.625
31
0.0
  0
LINE
 8
Layer0
10
1.6875
20
0.625
30
0.0
11
1.68962963585693
21
0.608823809681093
31
0.0
  0
LINE
 8
Layer0
10
1.68962963585693
20
0.608823809681093
30
0.0
11
1.69587341226347
21
0.59375
31
0.0
  0
LINE
 8
Layer0
10
1.69587341226347
20
0.59375
30
0.0
11
1.70580582617584
21
0.580805826175841
31
0.0
  0
LINE
 8
Layer0
10
1.70580582617584
20
0.580805826175841
30
0.0
11
1.71875
21
0.570873412263473
31
0.0
  0
LINE
 8
Layer0
10
1.71875
20
0.570873412263473
30
0.0
11
1.73382380968109
21
0.564629635856933
31
0.0
  0
LINE
 8
Layer0
10
1.73382380968109
20
0.564629635856933
30
0.0
11
1.75
21
0.5625
31
0.0
  0
LINE
 8
Layer0
10
1.75
20
0.5625
30
0.0
11
1.76617619031891
21
0.564629635856933
31
0.0
  0
LINE
 8
Layer0
10
1.76617619031891
20
0.564629635856933
30
0.0
11
1.78125
21
0.570873412263473
31
0.0
  0
LINE
 8
Layer0
10
1.78125
20
0.570873412263473
30
0.0
11
1.79419417382416
21
0.580805826175841
31
0.0
  0
LINE
 8
Layer0
10
1.79419417382416
20
0.580805826175841
30
0.0
11
1.80412658773653
21
0.59375
31
0.0
  0
LINE
 8
Layer0
10
1.80412658773653
20
0.59375
30
0.0
11
1.81037036414307
21
0.608823809681093
31
0.0
  0
LINE
 8
Layer0
10
1.81037036414307
20
0.608823809681093
30
0.0
11
1.8125
21
0.625
31
0.0
  0
LINE
 8
Layer0
10
2.6875
20
0.625
30
0.0
11
2.68537036414307
21
0.641176190318908
31
0.0
  0
LINE
 8
Layer0
10
2.68537036414307
20
0.641176190318908
30
0.0
11
2.67912658773653
21
0.65625
31
0.0
  0
LINE
 8
Layer0
10
2.67912658773653
20
0.65625
30
0.0
11
2.66919417382416
21
0.669194173824159
31
0.0
  0
LINE
 8
Layer0
10
2.66919417382416
20
0.669194173824159
30
0.0
11
2.65625
21
0.679126587736528
31
0.0
  0
LINE
 8
Layer0
10
2.65625
20
0.679126587736528
30
0.0
11
2.64117619031891
21
0.685370364143067
31
0.0
  0
LINE
 8
Layer0
10
2.64117619031891
20
0.685370364143067
30
0.0
11
2.625
21
0.6875
31
0.0
  0
LINE
 8
Layer0
10
2.625
20
0.6875
30
0.0
11
2.60882380968109
21
0.685370364143067
31
0.0
  0
LINE
 8
Layer0
10
2.60882380968109
20
0.685370364143067
30
0.0
11
2.59375
21
0.679126587736528
31
0.0
  0
LINE
 8
Layer0
10
2.59375
20
0.679126587736528
30
0.0
11
2.58080582617584
21
0.669194173824159
31
0.0
  0
LINE
 8
Layer0
10
2.58080582617584
20
0.669194173824159
30
0.0
11
2.57087341226347
21
0.65625
31
0.0
  0
LINE
 8
Layer0
10
2.57087341226347
20
0.65625
30
0.0
11
2.56462963585693
21
0.641176190318908
31
0.0
  0
LINE
 8
Layer0
10
2.56462963585693
20
0.641176190318908
30
0.0
11
2.5625
21
0.625
31
0.0
  0
LINE
 8
Layer0
10
2.5625
20
0.625
30
0.0
11
2.56462963585693
21
0.608823809681093
31
0.0
  0
LINE
 8
Layer0
10
2.56462963585693
20
0.608823809681093
30
0.0
11
2.57087341226347
21
0.59375
31
0.0
  0
LINE
 8
Layer0
10
2.57087341226347
20
0.59375
30
0.0
11
2.58080582617584
21
0.580805826175841
31
0.0
  0
LINE
 8
Layer0
10
2.58080582617584
20
0.580805826175841
30
0.0
11
2.59375
21
0.570873412263473
31
0.0
  0
LINE
 8
Layer0
10
2.59375
20
0.570873412263473
30
0.0
11
2.60882380968109
21
0.564629635856933
31
0.0
  0
LINE
 8
Layer0
10
2.60882380968109
20
0.564629635856933
30
0.0
11
2.625
21
0.5625
31
0.0
  0
LINE
 8
Layer0
10
2.625
20
0.5625
30
0.0
11
2.64117619031891
21
0.564629635856933
31
0.0
  0
LINE
 8
Layer0
10
2.64117619031891
20
0.564629635856933
30
0.0
11
2.65625
21
0.570873412263473
31
0.0
  0
LINE
 8
Layer0
10
2.65625
20
0.570873412263473
30
0.0
11
2.66919417382416
21
0.580805826175841
31
0.0
  0
LINE
 8
Layer0
10
2.66919417382416
20
0.580805826175841
30
0.0
11
2.67912658773653
21
0.59375
31
0.0
  0
LINE
 8
Layer0
10
2.67912658773653
20
0.59375
30
0.0
11
2.68537036414307
21
0.608823809681093
31
0.0
  0
LINE
 8
Layer0
10
2.68537036414307
20
0.608823809681093
30
0.0
11
2.6875
21
0.625
31
0.0
  0
LINE
 8
Layer0
10
0.375
20
0.6875
30
0.0
11
0.375
21
0.625
31
0.0
  0
LINE
 8
Layer0
10
0.3125
20
0.625
30
0.0
11
0.375
21
0.625
31
0.0
  0
LINE
 8
Layer0
10
0.375
20
0.625
30
0.0
11
0.375
21
0.5625
31
0.0
  0
LINE
 8
Layer0
10
0.375
20
0.625
30
0.0
11
0.4375
21
0.625
31
0.0
  0
LINE
 8
Layer0
10
1.6875
20
0.625
30
0.0
11
1.75
21
0.625
31
0.0
  0
LINE
 8
Layer0
10
1.75
20
0.6875
30
0.0
11
1.75
21
0.625
31
0.0
  0
LINE
 8
Layer0
10
1.75
20
0.625
30
0.0
11
1.8125
21
0.625
31
0.0
  0
LINE
 8
Layer0
10
1.75
20
0.625
30
0.0
11
1.75
21
0.5625
31
0.0
  0
LINE
 8
Layer0
10
2.5625
20
0.625
30
0.0
11
2.625
21
0.625
31
0.0
  0
LINE
 8
Layer0
10
2.625
20
0.6875
30
0.0
11
2.625
21
0.625
31
0.0
  0
LINE
 8
Layer0
10
2.625
20
0.625
30
0.0
11
2.6875
21
0.625
31
0.0
  0
LINE
 8
Layer0
10
2.625
20
0.625
30
0.0
11
2.625
21
0.5625
31
0.0
 0
ENDSEC
 0
EOF
