999
dxflib 3.12.2.0
  0
SECTION
  2
HEADER
  9
$ACADVER
  1
AC1015
  9
$HANDSEED
  5
FFFF
  9
$ANGBASE
 50
0.0
  9
$ATTMODE
 70
1
  9
$AUNITS
 70
0
  9
$AUPREC
 70
0
  9
$CELTSCALE
 40
1.0
  9
$CHAMFERA
 40
0.0
  9
$CHAMFERB
 40
0.0
  9
$CHAMFERC
 40
0.0
  9
$CHAMFERD
 40
0.0
  9
$CMLJUST
 70
0
  9
$CMLSCALE
 40
1.0
  9
$DIMADEC
 70
0
  9
$DIMALTD
 70
2
  9
$DIMALTF
 40
25.399999999999999
  9
$DIMALTRND
 40
0.0
  9
$DIMALTTD
 70
2
  9
$DIMALTTZ
 70
0
  9
$DIMALTU
 70
2
  9
$DIMALTZ
 70
0
  9
$DIMAPOST
  1

  9
$DIMASZ
 40
0.18
  9
$DIMATFIT
 70
3
  9
$DIMAUNIT
 70
0
  9
$DIMAZIN
 70
0
  9
$DIMCEN
 40
0.09
  9
$DIMDEC
 70
4
  9
$DIMDLE
 40
0.0
  9
$DIMDLI
 40
0.38
  9
$DIMDSEP
 70
46
  9
$DIMEXE
 40
0.18
  9
$DIMEXO
 40
0.0625
  9
$DIMFRAC
 70
0
  9
$DIMGAP
 40
0.09
  9
$DIMJUST
 70
0
  9
$DIMLFAC
 40
1.0
  9
$DIMLUNIT
 70
2
  9
$DIMLWD
 70
-2
  9
$DIMLWE
 70
-2
  9
$DIMPOST
  1

  9
$DIMRND
 40
0.0
  9
$DIMSCALE
 40
1.0
  9
$DIMTAD
 70
0
  9
$DIMTDEC
 70
4
  9
$DIMTFAC
 40
1.0
  9
$DIMTM
 40
0.0
  9
$DIMTOLJ
 70
1
  9
$DIMTP
 40
0.0
  9
$DIMTSZ
 40
0.0
  9
$DIMTVP
 40
0.0
  9
$DIMTXT
 40
0.18
  9
$DIMTZIN
 70
0
  9
$DIMZIN
 70
0
  9
$DWGCODEPAGE
  3
ANSI_1252
  9
$ELEVATION
 40
0.0
  9
$EXTMAX
 10
-100000000000000000000.0
 20
-100000000000000000000.0
 30
-100000000000000000000.0
  9
$EXTMIN
 10
100000000000000000000.0
 20
100000000000000000000.0
 30
100000000000000000000.0
  9
$FILLETRAD
 40
0.5
  9
$INSBASE
 10
0.0
 20
0.0
 30
0.0
  9
$INSUNITS
 70
1
  9
$LIMMAX
 10
12.0
 20
9.0
  9
$LIMMIN
 10
0.0
 20
0.0
  9
$LTSCALE
 40
1.0
  9
$LUNITS
 70
2
  9
$LUPREC
 70
4
  9
$MAXACTVP
 70
2
  9
$MEASUREMENT
 70
0
  9
$PDMODE
 70
0
  9
$PDSIZE
 40
0.0
  9
$PELEVATION
 40
0.0
  9
$PEXTMAX
 10
-100000000000000000000.0
 20
-100000000000000000000.0
 30
-100000000000000000000.0
  9
$PEXTMIN
 10
100000000000000000000.0
 20
100000000000000000000.0
 30
100000000000000000000.0
  9
$PINSBASE
 10
0.0
 20
0.0
 30
0.0
  9
$PLIMMAX
 10
12.0
 20
9.0
  9
$PLIMMIN
 10
0.0
 20
0.0
  9
$PLINEWID
 40
0.0
  9
$PROXYGRAPHICS
 70
1
  9
$PUCSORG
 10
0.0
 20
0.0
 30
0.0
  9
$PUCSXDIR
 10
1.0
 20
0.0
 30
0.0
  9
$PUCSYDIR
 10
0.0
 20
1.0
 30
0.0
  9
$SHADEDGE
 70
3
  9
$SHADEDIF
 70
70
  9
$SKETCHINC
 40
0.1
  9
$SPLINESEGS
 70
8
  9
$SPLINETYPE
 70
6
  9
$SURFTAB1
 70
6
  9
$SURFTAB2
 70
6
  9
$SURFTYPE
 70
6
  9
$SURFU
 70
6
  9
$SURFV
 70
6
  9
$TEXTSIZE
 40
2.5
  9
$THICKNESS
 40
0.0
  9
$TRACEWID
 40
0.05
  9
$TREEDEPTH
 70
3020
  9
$UCSORG
 10
0.0
 20
0.0
 30
0.0
  9
$UCSXDIR
 10
1.0
 20
0.0
 30
0.0
  9
$UCSYDIR
 10
0.0
 20
1.0
 30
0.0
  9
$UNITMODE
 70
0
  9
$USERI1
 70
0
  9
$USERI2
 70
0
  9
$USERI3
 70
0
  9
$USERI4
 70
0
  9
$USERI5
 70
0
  9
$USERR1
 40
0.0
  9
$USERR2
 40
0.0
  9
$USERR3
 40
0.0
  9
$USERR4
 40
0.0
  9
$USERR5
 40
0.0
  0
ENDSEC
  0
SECTION
  2
TABLES
  0
TABLE
  2
VPORT
  5
8
100
AcDbSymbolTable
 70
1
  0
VPORT
  5
30
100
AcDbSymbolTableRecord
100
AcDbViewportTableRecord
  2
*Active
 70
0
 10
0.0
 20
0.0
 11
1.0
 21
1.0
 12
286.30555555555549
 22
148.5
 13
0.0
 23
0.0
 14
10.0
 24
10.0
 15
10.0
 25
10.0
 16
0.0
 26
0.0
 36
1.0
 17
0.0
 27
0.0
 37
0.0
 40
297.0
 41
1.92798353909465
 42
50.0
 43
0.0
 44
0.0
 50
0.0
 51
0.0
 71
0
 72
100
 73
1
 74
3
 75
1
 76
1
 77
0
 78
0
281
0
 65
1
110
0.0
120
0.0
130
0.0
111
1.0
121
0.0
131
0.0
112
0.0
122
1.0
132
0.0
 79
0
146
0.0
  0
ENDTAB
  0
TABLE
  2
LTYPE
  5
5
100
AcDbSymbolTable
 70
50
  0
LTYPE
  5
16
100
AcDbSymbolTableRecord
100
AcDbLinetypeTableRecord
  2
Continuous
 70
0
  3
Solid line
 72
65
 73
0
 40
0.0
  0
LTYPE
  5
31
100
AcDbSymbolTableRecord
100
AcDbLinetypeTableRecord
  2
DOTX2
 70
0
  3
Dot (2x) .  .  .  .  .  .  .  .  .  .  .  .  .  .
 72
65
 73
2
 40
0.5
 49
0.0
 74
0
 49
-0.5
 74
0
  0
LTYPE
  5
32
100
AcDbSymbolTableRecord
100
AcDbLinetypeTableRecord
  2
HOT_WATER_SUPPLY
 70
0
  3
Hot water supply ---- HW ---- HW ---- HW ----
 72
65
 73
3
 40
22.859999999999999
 49
12.699999999999999
 74
0
 49
-5.0800000000000001
 74
0
 49
-5.0800000000000001
 74
0
  0
LTYPE
  5
33
100
AcDbSymbolTableRecord
100
AcDbLinetypeTableRecord
  2
BORDER2
 70
0
  3
Border (.5x) __.__.__.__.__.__.__.__.__.__.__.
 72
65
 73
6
 40
0.875
 49
0.25
 74
0
 49
-0.125
 74
0
 49
0.25
 74
0
 49
-0.125
 74
0
 49
0.0
 74
0
 49
-0.125
 74
0
  0
LTYPE
  5
34
100
AcDbSymbolTableRecord
100
AcDbLinetypeTableRecord
  2
FENCELINE2
 70
0
  3
Fenceline square ----[]-----[]----[]-----[]----[]---
 72
65
 73
4
 40
36.829999999999998
 49
6.3499999999999996
 74
0
 49
-2.54
 74
0
 49
-2.54
 74
0
 49
25.399999999999999
 74
0
  0
LTYPE
  5
35
100
AcDbSymbolTableRecord
100
AcDbLinetypeTableRecord
  2
ACAD_ISO14W100
 70
0
  3
ISO dash triple-dot __ . . . __ . . . __ . . . _
 72
65
 73
8
 40
24.0
 49
12.0
 74
0
 49
-3.0
 74
0
 49
0.0
 74
0
 49
-3.0
 74
0
 49
0.0
 74
0
 49
-3.0
 74
0
 49
0.0
 74
0
 49
-3.0
 74
0
  0
LTYPE
  5
36
100
AcDbSymbolTableRecord
100
AcDbLinetypeTableRecord
  2
BORDER
 70
0
  3
Border __ __ . __ __ . __ __ . __ __ . __ __ .
 72
65
 73
6
 40
1.75
 49
0.5
 74
0
 49
-0.25
 74
0
 49
0.5
 74
0
 49
-0.25
 74
0
 49
0.0
 74
0
 49
-0.25
 74
0
  0
LTYPE
  5
37
100
AcDbSymbolTableRecord
100
AcDbLinetypeTableRecord
  2
PHANTOM2
 70
0
  3
Phantom (.5x) ___ _ _ ___ _ _ ___ _ _ ___ _ _
 72
65
 73
6
 40
1.25
 49
0.625
 74
0
 49
-0.125
 74
0
 49
0.125
 74
0
 49
-0.125
 74
0
 49
0.125
 74
0
 49
-0.125
 74
0
  0
LTYPE
  5
38
100
AcDbSymbolTableRecord
100
AcDbLinetypeTableRecord
  2
ACAD_ISO06W100
 70
0
  3
ISO long-dash triple-dot ____ ... ____ ... ____
 72
65
 73
8
 40
36.0
 49
24.0
 74
0
 49
-3.0
 74
0
 49
0.0
 74
0
 49
-3.0
 74
0
 49
0.0
 74
0
 49
-3.0
 74
0
 49
0.0
 74
0
 49
-3.0
 74
0
  0
LTYPE
  5
39
100
AcDbSymbolTableRecord
100
AcDbLinetypeTableRecord
  2
DASHED2
 70
0
  3
Dashed (.5x) _ _ _ _ _ _ _ _ _ _ _ _ _ _ _ _ _ 
 72
65
 73
2
 40
0.375
 49
0.25
 74
0
 49
-0.125
 74
0
  0
LTYPE
  5
3A
100
AcDbSymbolTableRecord
100
AcDbLinetypeTableRecord
  2
GAS_LINE
 70
0
  3
Gas line ----GAS----GAS----GAS----GAS----GAS----GAS--
 72
65
 73
3
 40
24.130000000000003
 49
12.699999999999999
 74
0
 49
-5.0800000000000001
 74
0
 49
-6.3499999999999996
 74
0
  0
LTYPE
  5
3B
100
AcDbSymbolTableRecord
100
AcDbLinetypeTableRecord
  2
ACAD_ISO12W100
 70
0
  3
ISO dash double-dot __ . . __ . . __ . . __ . . 
 72
65
 73
6
 40
21.0
 49
12.0
 74
0
 49
-3.0
 74
0
 49
0.0
 74
0
 49
-3.0
 74
0
 49
0.0
 74
0
 49
-3.0
 74
0
  0
LTYPE
  5
3C
100
AcDbSymbolTableRecord
100
AcDbLinetypeTableRecord
  2
DASHDOT2
 70
0
  3
Dash dot (.5x) _._._._._._._._._._._._._._._.
 72
65
 73
4
 40
0.5
 49
0.25
 74
0
 49
-0.125
 74
0
 49
0.0
 74
0
 49
-0.125
 74
0
  0
LTYPE
  5
14
100
AcDbSymbolTableRecord
100
AcDbLinetypeTableRecord
  2
BYBLOCK
 70
0
  3

 72
65
 73
0
 40
0.0
  0
LTYPE
  5
3D
100
AcDbSymbolTableRecord
100
AcDbLinetypeTableRecord
  2
ACAD_ISO02W100
 70
0
  3
ISO dash __ __ __ __ __ __ __ __ __ __ __ __ __
 72
65
 73
2
 40
15.0
 49
12.0
 74
0
 49
-3.0
 74
0
  0
LTYPE
  5
3E
100
AcDbSymbolTableRecord
100
AcDbLinetypeTableRecord
  2
ACAD_ISO13W100
 70
0
  3
ISO double-dash double-dot __ __ . . __ __ . . _
 72
65
 73
8
 40
36.0
 49
12.0
 74
0
 49
-3.0
 74
0
 49
12.0
 74
0
 49
-3.0
 74
0
 49
0.0
 74
0
 49
-3.0
 74
0
 49
0.0
 74
0
 49
-3.0
 74
0
  0
LTYPE
  5
3F
100
AcDbSymbolTableRecord
100
AcDbLinetypeTableRecord
  2
DOT
 70
0
  3
Dot . . . . . . . . . . . . . . . . . . . . . . . .
 72
65
 73
2
 40
0.25
 49
0.0
 74
0
 49
-0.25
 74
0
  0
LTYPE
  5
40
100
AcDbSymbolTableRecord
100
AcDbLinetypeTableRecord
  2
DIVIDE2
 70
0
  3
Divide (.5x) __..__..__..__..__..__..__..__.._
 72
65
 73
6
 40
0.625
 49
0.25
 74
0
 49
-0.125
 74
0
 49
0.0
 74
0
 49
-0.125
 74
0
 49
0.0
 74
0
 49
-0.125
 74
0
  0
LTYPE
  5
41
100
AcDbSymbolTableRecord
100
AcDbLinetypeTableRecord
  2
CENTERX2
 70
0
  3
Center (2x) ________  __  ________  __  _____
 72
65
 73
4
 40
4.0
 49
2.5
 74
0
 49
-0.5
 74
0
 49
0.5
 74
0
 49
-0.5
 74
0
  0
LTYPE
  5
42
100
AcDbSymbolTableRecord
100
AcDbLinetypeTableRecord
  2
CENTER2
 70
0
  3
Center (.5x) ___ _ ___ _ ___ _ ___ _ ___ _ ___
 72
65
 73
4
 40
1.125
 49
0.75
 74
0
 49
-0.125
 74
0
 49
0.125
 74
0
 49
-0.125
 74
0
  0
LTYPE
  5
43
100
AcDbSymbolTableRecord
100
AcDbLinetypeTableRecord
  2
ZIGZAG
 70
0
  3
Zig zag /\/\/\/\/\/\/\/\/\/\/\/\/\/\/\/\/\/\/\/\/\/\/\/
 72
65
 73
4
 40
20.32254
 49
0.00254
 74
0
 49
-5.0800000000000001
 74
0
 49
-10.16
 74
0
 49
-5.0800000000000001
 74
0
  0
LTYPE
  5
44
100
AcDbSymbolTableRecord
100
AcDbLinetypeTableRecord
  2
BATTING
 70
0
  3
Batting SSSSSSSSSSSSSSSSSSSSSSSSSSSSSSSSSSSSSSSSSSSSSSS
 72
65
 73
4
 40
10.16254
 49
0.00254
 74
0
 49
-2.54
 74
0
 49
-5.0800000000000001
 74
0
 49
-2.54
 74
0
  0
LTYPE
  5
45
100
AcDbSymbolTableRecord
100
AcDbLinetypeTableRecord
  2
DRAINAGE
 70
0
  3
Drainage ---->---->---->----
 72
65
 73
2
 40
10.16
 49
5.0800000000000001
 74
0
 49
5.0800000000000001
 74
0
  0
LTYPE
  5
46
100
AcDbSymbolTableRecord
100
AcDbLinetypeTableRecord
  2
PHANTOM
 70
0
  3
Phantom ______  __  __  ______  __  __  ______ 
 72
65
 73
6
 40
2.5
 49
1.25
 74
0
 49
-0.25
 74
0
 49
0.25
 74
0
 49
-0.25
 74
0
 49
0.25
 74
0
 49
-0.25
 74
0
  0
LTYPE
  5
47
100
AcDbSymbolTableRecord
100
AcDbLinetypeTableRecord
  2
DASHDOTX2
 70
0
  3
Dash dot (2x) ____  .  ____  .  ____  .  ___
 72
65
 73
4
 40
2.0
 49
1.0
 74
0
 49
-0.5
 74
0
 49
0.0
 74
0
 49
-0.5
 74
0
  0
LTYPE
  5
48
100
AcDbSymbolTableRecord
100
AcDbLinetypeTableRecord
  2
ACAD_ISO05W100
 70
0
  3
ISO long-dash double-dot ____ .. ____ .. ____ . 
 72
65
 73
6
 40
33.0
 49
24.0
 74
0
 49
-3.0
 74
0
 49
0.0
 74
0
 49
-3.0
 74
0
 49
0.0
 74
0
 49
-3.0
 74
0
  0
LTYPE
  5
49
100
AcDbSymbolTableRecord
100
AcDbLinetypeTableRecord
  2
DIVIDEX2
 70
0
  3
Divide (2x) ________  .  .  ________  .  .  _
 72
65
 73
6
 40
2.5
 49
1.0
 74
0
 49
-0.5
 74
0
 49
0.0
 74
0
 49
-0.5
 74
0
 49
0.0
 74
0
 49
-0.5
 74
0
  0
LTYPE
  5
4A
100
AcDbSymbolTableRecord
100
AcDbLinetypeTableRecord
  2
DOT2
 70
0
  3
Dot (.5x) ........................................
 72
65
 73
2
 40
0.125
 49
0.0
 74
0
 49
-0.125
 74
0
  0
LTYPE
  5
4B
100
AcDbSymbolTableRecord
100
AcDbLinetypeTableRecord
  2
CENTER
 70
0
  3
Center ____ _ ____ _ ____ _ ____ _ ____ _ ____
 72
65
 73
4
 40
2.0
 49
1.25
 74
0
 49
-0.25
 74
0
 49
0.25
 74
0
 49
-0.25
 74
0
  0
LTYPE
  5
4C
100
AcDbSymbolTableRecord
100
AcDbLinetypeTableRecord
  2
ACAD_ISO08W100
 70
0
  3
ISO long-dash short-dash ____ __ ____ __ ____ _
 72
65
 73
4
 40
36.0
 49
24.0
 74
0
 49
-3.0
 74
0
 49
6.0
 74
0
 49
-3.0
 74
0
  0
LTYPE
  5
4D
100
AcDbSymbolTableRecord
100
AcDbLinetypeTableRecord
  2
DRAINAGE2
 70
0
  3
Drainage reversed----<----<----<----
 72
65
 73
2
 40
10.16
 49
5.0800000000000001
 74
0
 49
5.0800000000000001
 74
0
  0
LTYPE
  5
4E
100
AcDbSymbolTableRecord
100
AcDbLinetypeTableRecord
  2
HIDDEN
 70
0
  3
Hidden __ __ __ __ __ __ __ __ __ __ __ __ __ __
 72
65
 73
2
 40
0.375
 49
0.25
 74
0
 49
-0.125
 74
0
  0
LTYPE
  5
4F
100
AcDbSymbolTableRecord
100
AcDbLinetypeTableRecord
  2
ACAD_ISO07W100
 70
0
  3
ISO dot . . . . . . . . . . . . . . . . . . . . 
 72
65
 73
2
 40
3.0
 49
0.0
 74
0
 49
-3.0
 74
0
  0
LTYPE
  5
50
100
AcDbSymbolTableRecord
100
AcDbLinetypeTableRecord
  2
ACAD_ISO11W100
 70
0
  3
ISO double-dash dot __ __ . __ __ . __ __ . __ _
 72
65
 73
6
 40
33.0
 49
12.0
 74
0
 49
-3.0
 74
0
 49
12.0
 74
0
 49
-3.0
 74
0
 49
0.0
 74
0
 49
-3.0
 74
0
  0
LTYPE
  5
51
100
AcDbSymbolTableRecord
100
AcDbLinetypeTableRecord
  2
DASHDOT
 70
0
  3
Dash dot __ . __ . __ . __ . __ . __ . __ . __
 72
65
 73
4
 40
1.0
 49
0.5
 74
0
 49
-0.25
 74
0
 49
0.0
 74
0
 49
-0.25
 74
0
  0
LTYPE
  5
52
100
AcDbSymbolTableRecord
100
AcDbLinetypeTableRecord
  2
TRACKS
 70
0
  3
Tracks -|-|-|-|-|-|-|-|-|-|-|-|-|-|-|-|-|-|-|-|-|-|-|-|-
 72
65
 73
2
 40
7.6200000000000001
 49
3.8100000000000001
 74
0
 49
3.8100000000000001
 74
0
  0
LTYPE
  5
15
100
AcDbSymbolTableRecord
100
AcDbLinetypeTableRecord
  2
BYLAYER
 70
0
  3

 72
65
 73
0
 40
0.0
  0
LTYPE
  5
53
100
AcDbSymbolTableRecord
100
AcDbLinetypeTableRecord
  2
DASHED
 70
0
  3
Dashed __ __ __ __ __ __ __ __ __ __ __ __ __ _
 72
65
 73
2
 40
0.75
 49
0.5
 74
0
 49
-0.25
 74
0
  0
LTYPE
  5
54
100
AcDbSymbolTableRecord
100
AcDbLinetypeTableRecord
  2
ACAD_ISO04W100
 70
0
  3
ISO long-dash dot ____ . ____ . ____ . ____ . _
 72
65
 73
4
 40
30.0
 49
24.0
 74
0
 49
-3.0
 74
0
 49
0.0
 74
0
 49
-3.0
 74
0
  0
LTYPE
  5
55
100
AcDbSymbolTableRecord
100
AcDbLinetypeTableRecord
  2
ACAD_ISO10W100
 70
0
  3
ISO dash dot __ . __ . __ . __ . __ . __ . __ . 
 72
65
 73
4
 40
18.0
 49
12.0
 74
0
 49
-3.0
 74
0
 49
0.0
 74
0
 49
-3.0
 74
0
  0
LTYPE
  5
56
100
AcDbSymbolTableRecord
100
AcDbLinetypeTableRecord
  2
HIDDENX2
 70
0
  3
Hidden (2x) ____ ____ ____ ____ ____ ____ ____ 
 72
65
 73
2
 40
0.75
 49
0.5
 74
0
 49
-0.25
 74
0
  0
LTYPE
  5
57
100
AcDbSymbolTableRecord
100
AcDbLinetypeTableRecord
  2
PHANTOMX2
 70
0
  3
Phantom (2x) ____________    ____    ____   _
 72
65
 73
6
 40
5.0
 49
2.5
 74
0
 49
-0.5
 74
0
 49
0.5
 74
0
 49
-0.5
 74
0
 49
0.5
 74
0
 49
-0.5
 74
0
  0
LTYPE
  5
58
100
AcDbSymbolTableRecord
100
AcDbLinetypeTableRecord
  2
ACAD_ISO09W100
 70
0
  3
ISO long-dash double-short-dash ____ __ __ ____
 72
65
 73
6
 40
45.0
 49
24.0
 74
0
 49
-3.0
 74
0
 49
6.0
 74
0
 49
-3.0
 74
0
 49
6.0
 74
0
 49
-3.0
 74
0
  0
LTYPE
  5
59
100
AcDbSymbolTableRecord
100
AcDbLinetypeTableRecord
  2
DASHEDX2
 70
0
  3
Dashed (2x) ____  ____  ____  ____  ____  ___
 72
65
 73
2
 40
1.5
 49
1.0
 74
0
 49
-0.5
 74
0
  0
LTYPE
  5
5A
100
AcDbSymbolTableRecord
100
AcDbLinetypeTableRecord
  2
BORDERX2
 70
0
  3
Border (2x) ____  ____  .  ____  ____  .  ___
 72
65
 73
6
 40
3.5
 49
1.0
 74
0
 49
-0.5
 74
0
 49
1.0
 74
0
 49
-0.5
 74
0
 49
0.0
 74
0
 49
-0.5
 74
0
  0
LTYPE
  5
5B
100
AcDbSymbolTableRecord
100
AcDbLinetypeTableRecord
  2
FENCELINE1
 70
0
  3
Fenceline circle ----0-----0----0-----0----0-----0--
 72
65
 73
4
 40
36.829999999999998
 49
6.3499999999999996
 74
0
 49
-2.54
 74
0
 49
-2.54
 74
0
 49
25.399999999999999
 74
0
  0
LTYPE
  5
5C
100
AcDbSymbolTableRecord
100
AcDbLinetypeTableRecord
  2
ACAD_ISO15W100
 70
0
  3
ISO double-dash triple-dot __ __ . . . __ __ . .
 72
65
 73
10
 40
39.0
 49
12.0
 74
0
 49
-3.0
 74
0
 49
12.0
 74
0
 49
-3.0
 74
0
 49
0.0
 74
0
 49
-3.0
 74
0
 49
0.0
 74
0
 49
-3.0
 74
0
 49
0.0
 74
0
 49
-3.0
 74
0
  0
LTYPE
  5
5D
100
AcDbSymbolTableRecord
100
AcDbLinetypeTableRecord
  2
ACAD_ISO03W100
 70
0
  3
ISO dash space __    __    __    __    __    __
 72
65
 73
2
 40
30.0
 49
12.0
 74
0
 49
-18.0
 74
0
  0
LTYPE
  5
5E
100
AcDbSymbolTableRecord
100
AcDbLinetypeTableRecord
  2
DIVIDE
 70
0
  3
Divide ____ . . ____ . . ____ . . ____ . . ____
 72
65
 73
6
 40
1.25
 49
0.5
 74
0
 49
-0.25
 74
0
 49
0.0
 74
0
 49
-0.25
 74
0
 49
0.0
 74
0
 49
-0.25
 74
0
  0
LTYPE
  5
5F
100
AcDbSymbolTableRecord
100
AcDbLinetypeTableRecord
  2
HIDDEN2
 70
0
  3
Hidden (.5x) _ _ _ _ _ _ _ _ _ _ _ _ _ _ _ _ _ 
 72
65
 73
2
 40
0.1875
 49
0.125
 74
0
 49
-0.0625
 74
0
  0
ENDTAB
  0
TABLE
  2
LAYER
  5
2
100
AcDbSymbolTable
 70
3
  0
LAYER
  5
10
100
AcDbSymbolTableRecord
100
AcDbLayerTableRecord
  2
0
 70
0
 62
7
420
16777215
  6
Continuous
370
25
390
F
  0
LAYER
  5
60
100
AcDbSymbolTableRecord
100
AcDbLayerTableRecord
  2
Engrave
 70
0
 62
7
420
0
  6
Continuous
370
0
390
F
  0
LAYER
  5
61
100
AcDbSymbolTableRecord
100
AcDbLayerTableRecord
  2
Cutting
 70
0
 62
1
420
16711680
  6
Continuous
370
0
390
F
  0
ENDTAB
  0
TABLE
  2
STYLE
  5
3
100
AcDbSymbolTable
 70
1
  0
STYLE
  5
62
100
AcDbSymbolTableRecord
100
AcDbTextStyleTableRecord
  2
Standard
 70
0
 40
0.0
 41
1.0
 50
0.0
 71
0
 42
2.5
  3

  4

1001
ACAD
1000
txt
1071
0
  0
ENDTAB
  0
TABLE
  2
VIEW
  5
6
100
AcDbSymbolTable
 70
0
  0
ENDTAB
  0
TABLE
  2
UCS
  5
7
100
AcDbSymbolTable
 70
0
  0
ENDTAB
  0
TABLE
  2
APPID
  5
9
100
AcDbSymbolTable
 70
1
  0
APPID
  5
12
100
AcDbSymbolTableRecord
100
AcDbRegAppTableRecord
  2
ACAD
 70
0
  0
APPID
  5
63
100
AcDbSymbolTableRecord
100
AcDbRegAppTableRecord
  2
QCAD
 70
0
  0
ENDTAB
  0
TABLE
  2
DIMSTYLE
  5
A
100
AcDbSymbolTable
 70
1
100
AcDbDimStyleTable
 71
0
  0
DIMSTYLE
105
27
100
AcDbSymbolTableRecord
100
AcDbDimStyleTableRecord
  2
Standard
 41
0.18
 42
0.0625
 43
3.75
 44
0.18
 70
0
 73
0
 74
0
 77
1
 78
8
140
0.18
141
2.5
143
0.03937007874016
147
0.09
171
3
172
1
271
2
272
2
274
3
278
44
283
0
284
8
340
62
  0
ENDTAB
  0
TABLE
  2
BLOCK_RECORD
  5
1
100
AcDbSymbolTable
 70
1
  0
BLOCK_RECORD
  5
1F
100
AcDbSymbolTableRecord
100
AcDbBlockTableRecord
  2
*Model_Space
340
22
  0
BLOCK_RECORD
  5
1B
100
AcDbSymbolTableRecord
100
AcDbBlockTableRecord
  2
*Paper_Space
340
1E
  0
BLOCK_RECORD
  5
23
100
AcDbSymbolTableRecord
100
AcDbBlockTableRecord
  2
*Paper_Space0
340
26
  0
ENDTAB
  0
ENDSEC
  0
SECTION
  2
BLOCKS
  0
BLOCK
  5
20
100
AcDbEntity
  8
0
100
AcDbBlockBegin
  2
*Model_Space
 70
0
 10
0.0
 20
0.0
 30
0.0
  3
*Model_Space
  1

  0
ENDBLK
  5
21
100
AcDbEntity
  8
0
100
AcDbBlockEnd
  0
BLOCK
  5
1C
100
AcDbEntity
 67
1
  8
0
100
AcDbBlockBegin
  2
*Paper_Space
 70
0
 10
0.0
 20
0.0
 30
0.0
  3
*Paper_Space
  1

  0
ENDBLK
  5
1D
100
AcDbEntity
 67
1
  8
0
100
AcDbBlockEnd
  0
BLOCK
  5
24
100
AcDbEntity
  8
0
100
AcDbBlockBegin
  2
*Paper_Space0
 70
0
 10
0.0
 20
0.0
 30
0.0
  3
*Paper_Space0
  1

  0
ENDBLK
  5
25
100
AcDbEntity
  8
0
100
AcDbBlockEnd
  0
ENDSEC
  0
SECTION
  2
ENTITIES
  0
LINE
  5
64
100
AcDbEntity
100
AcDbLine
  8
Cutting
 62
256
370
-1
 48
1.0
  6
BYLAYER
 10
0.6364604881837184
 20
5.922607220140657
 30
0.0
 11
0.6364604881837184
 21
4.917830108636446
 31
0.0
  0
LINE
  5
65
100
AcDbEntity
100
AcDbLine
  8
Cutting
 62
256
370
-1
 48
1.0
  6
BYLAYER
 10
11.261460488183719
 20
3.1726072201406565
 30
0.0
 11
13.511460488183719
 21
3.1726072201406565
 31
0.0
  0
LINE
  5
66
100
AcDbEntity
100
AcDbLine
  8
Cutting
 62
256
370
-1
 48
1.0
  6
BYLAYER
 10
0.6364604881837184
 20
2.9178301086364451
 30
0.0
 11
0.6364604881837184
 21
1.922607220140657
 31
0.0
  0
LINE
  5
67
100
AcDbEntity
100
AcDbLine
  8
Cutting
 62
256
370
-1
 48
1.0
  6
BYLAYER
 10
0.6364604881837184
 20
1.922607220140657
 30
0.0
 11
4.8864604881837179
 21
1.922607220140657
 31
0.0
  0
LINE
  5
68
100
AcDbEntity
100
AcDbLine
  8
Cutting
 62
256
370
-1
 48
1.0
  6
BYLAYER
 10
4.8864604881837179
 20
5.922607220140657
 30
0.0
 11
0.6364604881837184
 21
5.922607220140657
 31
0.0
  0
LINE
  5
69
100
AcDbEntity
100
AcDbLine
  8
Cutting
 62
256
370
-1
 48
1.0
  6
BYLAYER
 10
4.8864604881837197
 20
5.297607220140657
 30
0.0
 11
4.8864604881837179
 21
5.922607220140657
 31
0.0
  0
LINE
  5
6A
100
AcDbEntity
100
AcDbLine
  8
Cutting
 62
256
370
-1
 48
1.0
  6
BYLAYER
 10
4.8864604881837197
 20
2.5476072201406565
 30
0.0
 11
4.8864604881837179
 21
1.922607220140657
 31
0.0
  0
LINE
  5
6B
100
AcDbEntity
100
AcDbLine
  8
Cutting
 62
256
370
-1
 48
1.0
  6
BYLAYER
 10
11.136460488183719
 20
2.4226072201406565
 30
0.0
 11
11.136460488183719
 21
3.0476072201406565
 31
0.0
  0
LINE
  5
6C
100
AcDbEntity
100
AcDbLine
  8
Cutting
 62
256
370
-1
 48
1.0
  6
BYLAYER
 10
11.136460488183719
 20
2.4226072201406565
 30
0.0
 11
6.8864604881837179
 21
2.4226072201406565
 31
0.0
  0
LINE
  5
6D
100
AcDbEntity
100
AcDbLine
  8
Cutting
 62
256
370
-1
 48
1.0
  6
BYLAYER
 10
4.8864604881837197
 20
5.297607220140657
 30
0.0
 11
4.9188178078369544
 21
5.2119086376398194
 31
0.0
  0
LINE
  5
6E
100
AcDbEntity
100
AcDbLine
  8
Cutting
 62
256
370
-1
 48
1.0
  6
BYLAYER
 10
4.9188178078369544
 20
5.2119086376398194
 30
0.0
 11
4.957684723194272
 21
5.1289592189052584
 31
0.0
  0
LINE
  5
6F
100
AcDbEntity
100
AcDbLine
  8
Cutting
 62
256
370
-1
 48
1.0
  6
BYLAYER
 10
4.957684723194272
 20
5.1289592189052584
 30
0.0
 11
5.0028299536877681
 21
5.0492525608302685
 31
0.0
  0
LINE
  5
70
100
AcDbEntity
100
AcDbLine
  8
Cutting
 62
256
370
-1
 48
1.0
  6
BYLAYER
 10
5.0028299536877681
 20
5.0492525608302685
 30
0.0
 11
5.0539848591526466
 21
4.9732629640115338
 31
0.0
  0
LINE
  5
71
100
AcDbEntity
100
AcDbLine
  8
Cutting
 62
256
370
-1
 48
1.0
  6
BYLAYER
 10
5.0539848591526466
 20
4.9732629640115338
 30
0.0
 11
5.1108450383911714
 21
4.9014426103869706
 31
0.0
  0
LINE
  5
72
100
AcDbEntity
100
AcDbLine
  8
Cutting
 62
256
370
-1
 48
1.0
  6
BYLAYER
 10
5.1108450383911714
 20
4.9014426103869706
 30
0.0
 11
5.1730721405354005
 21
4.8342188724923378
 31
0.0
  0
LINE
  5
73
100
AcDbEntity
100
AcDbLine
  8
Cutting
 62
256
370
-1
 48
1.0
  6
BYLAYER
 10
5.1730721405354005
 20
4.8342188724923378
 30
0.0
 11
5.2402958784300315
 21
4.7719917703481105
 31
0.0
  0
LINE
  5
74
100
AcDbEntity
100
AcDbLine
  8
Cutting
 62
256
370
-1
 48
1.0
  6
BYLAYER
 10
5.2402958784300315
 20
4.7719917703481105
 30
0.0
 11
5.3121162320545947
 21
4.7151315911095857
 31
0.0
  0
LINE
  5
75
100
AcDbEntity
100
AcDbLine
  8
Cutting
 62
256
370
-1
 48
1.0
  6
BYLAYER
 10
5.3121162320545947
 20
4.7151315911095857
 30
0.0
 11
5.3881058288733295
 21
4.6639766856447071
 31
0.0
  0
LINE
  5
76
100
AcDbEntity
100
AcDbLine
  8
Cutting
 62
256
370
-1
 48
1.0
  6
BYLAYER
 10
5.3881058288733295
 20
4.6639766856447071
 30
0.0
 11
5.4678124869483211
 21
4.6188314551512111
 31
0.0
  0
LINE
  5
77
100
AcDbEntity
100
AcDbLine
  8
Cutting
 62
256
370
-1
 48
1.0
  6
BYLAYER
 10
5.4678124869483211
 20
4.6188314551512111
 30
0.0
 11
5.5507619056828821
 21
4.5799645397938935
 31
0.0
  0
LINE
  5
78
100
AcDbEntity
100
AcDbLine
  8
Cutting
 62
256
370
-1
 48
1.0
  6
BYLAYER
 10
5.5507619056828821
 20
4.5799645397938935
 30
0.0
 11
5.6364604881837179
 21
4.547607220140657
 31
0.0
  0
LINE
  5
79
100
AcDbEntity
100
AcDbLine
  8
Cutting
 62
256
370
-1
 48
1.0
  6
BYLAYER
 10
5.6364604881837179
 20
3.2976072201406565
 30
0.0
 11
5.5507619056828803
 21
3.2652499004874214
 31
0.0
  0
LINE
  5
7A
100
AcDbEntity
100
AcDbLine
  8
Cutting
 62
256
370
-1
 48
1.0
  6
BYLAYER
 10
5.5507619056828803
 20
3.2652499004874214
 30
0.0
 11
5.4678124869483211
 21
3.2263829851301034
 31
0.0
  0
LINE
  5
7B
100
AcDbEntity
100
AcDbLine
  8
Cutting
 62
256
370
-1
 48
1.0
  6
BYLAYER
 10
5.4678124869483211
 20
3.2263829851301034
 30
0.0
 11
5.3881058288733295
 21
3.1812377546366073
 31
0.0
  0
LINE
  5
7C
100
AcDbEntity
100
AcDbLine
  8
Cutting
 62
256
370
-1
 48
1.0
  6
BYLAYER
 10
5.3881058288733295
 20
3.1812377546366073
 30
0.0
 11
5.3121162320545947
 21
3.1300828491717292
 31
0.0
  0
LINE
  5
7D
100
AcDbEntity
100
AcDbLine
  8
Cutting
 62
256
370
-1
 48
1.0
  6
BYLAYER
 10
5.3121162320545947
 20
3.1300828491717292
 30
0.0
 11
5.2402958784300315
 21
3.0732226699332044
 31
0.0
  0
LINE
  5
7E
100
AcDbEntity
100
AcDbLine
  8
Cutting
 62
256
370
-1
 48
1.0
  6
BYLAYER
 10
5.2402958784300315
 20
3.0732226699332044
 30
0.0
 11
5.1730721405354005
 21
3.0109955677889753
 31
0.0
  0
LINE
  5
7F
100
AcDbEntity
100
AcDbLine
  8
Cutting
 62
256
370
-1
 48
1.0
  6
BYLAYER
 10
5.1730721405354005
 20
3.0109955677889753
 30
0.0
 11
5.1108450383911714
 21
2.9437718298943434
 31
0.0
  0
LINE
  5
80
100
AcDbEntity
100
AcDbLine
  8
Cutting
 62
256
370
-1
 48
1.0
  6
BYLAYER
 10
5.1108450383911714
 20
2.9437718298943434
 30
0.0
 11
5.0539848591526466
 21
2.8719514762697806
 31
0.0
  0
LINE
  5
81
100
AcDbEntity
100
AcDbLine
  8
Cutting
 62
256
370
-1
 48
1.0
  6
BYLAYER
 10
5.0539848591526466
 20
2.8719514762697806
 30
0.0
 11
5.0028299536877681
 21
2.7959618794510459
 31
0.0
  0
LINE
  5
82
100
AcDbEntity
100
AcDbLine
  8
Cutting
 62
256
370
-1
 48
1.0
  6
BYLAYER
 10
5.0028299536877681
 20
2.7959618794510459
 30
0.0
 11
4.957684723194272
 21
2.7162552213760551
 31
0.0
  0
LINE
  5
83
100
AcDbEntity
100
AcDbLine
  8
Cutting
 62
256
370
-1
 48
1.0
  6
BYLAYER
 10
4.957684723194272
 20
2.7162552213760551
 30
0.0
 11
4.9188178078369544
 21
2.6333058026414942
 31
0.0
  0
LINE
  5
84
100
AcDbEntity
100
AcDbLine
  8
Cutting
 62
256
370
-1
 48
1.0
  6
BYLAYER
 10
4.9188178078369544
 20
2.6333058026414942
 30
0.0
 11
4.8864604881837197
 21
2.5476072201406565
 31
0.0
  0
LINE
  5
85
100
AcDbEntity
100
AcDbLine
  8
Cutting
 62
256
370
-1
 48
1.0
  6
BYLAYER
 10
5.6364604881837179
 20
4.547607220140657
 30
0.0
 11
6.1364604881837179
 21
4.547607220140657
 31
0.0
  0
LINE
  5
86
100
AcDbEntity
100
AcDbLine
  8
Cutting
 62
256
370
-1
 48
1.0
  6
BYLAYER
 10
5.6364604881837179
 20
3.2976072201406565
 30
0.0
 11
6.1364604881837179
 21
3.2976072201406565
 31
0.0
  0
LINE
  5
87
100
AcDbEntity
100
AcDbLine
  8
Cutting
 62
256
370
-1
 48
1.0
  6
BYLAYER
 10
13.511460488183719
 20
4.672607220140657
 30
0.0
 11
11.261460488183719
 21
4.672607220140657
 31
0.0
  0
LINE
  5
88
100
AcDbEntity
100
AcDbLine
  8
Cutting
 62
256
370
-1
 48
1.0
  6
BYLAYER
 10
13.636460488183719
 20
4.547607220140657
 30
0.0
 11
13.633886781464287
 21
4.563319160736107
 31
0.0
  0
LINE
  5
89
100
AcDbEntity
100
AcDbLine
  8
Cutting
 62
256
370
-1
 48
1.0
  6
BYLAYER
 10
13.633886781464287
 20
4.563319160736107
 30
0.0
 11
13.629553541776815
 21
4.5786394765736951
 31
0.0
  0
LINE
  5
8A
100
AcDbEntity
100
AcDbLine
  8
Cutting
 62
256
370
-1
 48
1.0
  6
BYLAYER
 10
13.629553541776815
 20
4.5786394765736951
 30
0.0
 11
13.623516314359559
 21
4.593371785580258
 31
0.0
  0
LINE
  5
8B
100
AcDbEntity
100
AcDbLine
  8
Cutting
 62
256
370
-1
 48
1.0
  6
BYLAYER
 10
13.623516314359559
 20
4.593371785580258
 30
0.0
 11
13.615852486862284
 21
4.6073272429946392
 31
0.0
  0
LINE
  5
8C
100
AcDbEntity
100
AcDbLine
  8
Cutting
 62
256
370
-1
 48
1.0
  6
BYLAYER
 10
13.615852486862284
 20
4.6073272429946392
 30
0.0
 11
13.606660297359728
 21
4.6203269620570531
 31
0.0
  0
LINE
  5
8D
100
AcDbEntity
100
AcDbLine
  8
Cutting
 62
256
370
-1
 48
1.0
  6
BYLAYER
 10
13.606660297359728
 20
4.6203269620570531
 30
0.0
 11
13.596057575095799
 21
4.6322043070527368
 31
0.0
  0
LINE
  5
8E
100
AcDbEntity
100
AcDbLine
  8
Cutting
 62
256
370
-1
 48
1.0
  6
BYLAYER
 10
13.596057575095799
 20
4.6322043070527368
 30
0.0
 11
13.584180230100113
 21
4.6428070293166694
 31
0.0
  0
LINE
  5
8F
100
AcDbEntity
100
AcDbLine
  8
Cutting
 62
256
370
-1
 48
1.0
  6
BYLAYER
 10
13.584180230100113
 20
4.6428070293166694
 30
0.0
 11
13.571180511037699
 21
4.6519992188192223
 31
0.0
  0
LINE
  5
90
100
AcDbEntity
100
AcDbLine
  8
Cutting
 62
256
370
-1
 48
1.0
  6
BYLAYER
 10
13.571180511037699
 20
4.6519992188192223
 30
0.0
 11
13.55722505362332
 21
4.6596630463164974
 31
0.0
  0
LINE
  5
91
100
AcDbEntity
100
AcDbLine
  8
Cutting
 62
256
370
-1
 48
1.0
  6
BYLAYER
 10
13.55722505362332
 20
4.6596630463164974
 30
0.0
 11
13.542492744616755
 21
4.665700273733755
 31
0.0
  0
LINE
  5
92
100
AcDbEntity
100
AcDbLine
  8
Cutting
 62
256
370
-1
 48
1.0
  6
BYLAYER
 10
13.542492744616755
 20
4.665700273733755
 30
0.0
 11
13.527172428779167
 21
4.6700335134212274
 31
0.0
  0
LINE
  5
93
100
AcDbEntity
100
AcDbLine
  8
Cutting
 62
256
370
-1
 48
1.0
  6
BYLAYER
 10
13.527172428779167
 20
4.6700335134212274
 30
0.0
 11
13.511460488183719
 21
4.672607220140657
 31
0.0
  0
LINE
  5
94
100
AcDbEntity
100
AcDbLine
  8
Cutting
 62
256
370
-1
 48
1.0
  6
BYLAYER
 10
13.636460488183719
 20
3.2976072201406565
 30
0.0
 11
13.633886781464287
 21
3.2818952795452074
 31
0.0
  0
LINE
  5
95
100
AcDbEntity
100
AcDbLine
  8
Cutting
 62
256
370
-1
 48
1.0
  6
BYLAYER
 10
13.633886781464287
 20
3.2818952795452074
 30
0.0
 11
13.629553541776815
 21
3.2665749637076185
 31
0.0
  0
LINE
  5
96
100
AcDbEntity
100
AcDbLine
  8
Cutting
 62
256
370
-1
 48
1.0
  6
BYLAYER
 10
13.629553541776815
 20
3.2665749637076185
 30
0.0
 11
13.623516314359559
 21
3.251842654701055
 31
0.0
  0
LINE
  5
97
100
AcDbEntity
100
AcDbLine
  8
Cutting
 62
256
370
-1
 48
1.0
  6
BYLAYER
 10
13.623516314359559
 20
3.251842654701055
 30
0.0
 11
13.615852486862284
 21
3.2378871972866752
 31
0.0
  0
LINE
  5
98
100
AcDbEntity
100
AcDbLine
  8
Cutting
 62
256
370
-1
 48
1.0
  6
BYLAYER
 10
13.615852486862284
 20
3.2378871972866752
 30
0.0
 11
13.606660297359728
 21
3.2248874782242605
 31
0.0
  0
LINE
  5
99
100
AcDbEntity
100
AcDbLine
  8
Cutting
 62
256
370
-1
 48
1.0
  6
BYLAYER
 10
13.606660297359728
 20
3.2248874782242605
 30
0.0
 11
13.596057575095799
 21
3.2130101332285776
 31
0.0
  0
LINE
  5
9A
100
AcDbEntity
100
AcDbLine
  8
Cutting
 62
256
370
-1
 48
1.0
  6
BYLAYER
 10
13.596057575095799
 20
3.2130101332285776
 30
0.0
 11
13.584180230100113
 21
3.202407410964645
 31
0.0
  0
LINE
  5
9B
100
AcDbEntity
100
AcDbLine
  8
Cutting
 62
256
370
-1
 48
1.0
  6
BYLAYER
 10
13.584180230100113
 20
3.202407410964645
 30
0.0
 11
13.571180511037699
 21
3.1932152214620917
 31
0.0
  0
LINE
  5
9C
100
AcDbEntity
100
AcDbLine
  8
Cutting
 62
256
370
-1
 48
1.0
  6
BYLAYER
 10
13.571180511037699
 20
3.1932152214620917
 30
0.0
 11
13.55722505362332
 21
3.1855513939648161
 31
0.0
  0
LINE
  5
9D
100
AcDbEntity
100
AcDbLine
  8
Cutting
 62
256
370
-1
 48
1.0
  6
BYLAYER
 10
13.55722505362332
 20
3.1855513939648161
 30
0.0
 11
13.542492744616755
 21
3.1795141665475586
 31
0.0
  0
LINE
  5
9E
100
AcDbEntity
100
AcDbLine
  8
Cutting
 62
256
370
-1
 48
1.0
  6
BYLAYER
 10
13.542492744616755
 20
3.1795141665475586
 30
0.0
 11
13.527172428779167
 21
3.175180926860087
 31
0.0
  0
LINE
  5
9F
100
AcDbEntity
100
AcDbLine
  8
Cutting
 62
256
370
-1
 48
1.0
  6
BYLAYER
 10
13.527172428779167
 20
3.175180926860087
 30
0.0
 11
13.511460488183719
 21
3.1726072201406565
 31
0.0
  0
LINE
  5
A0
100
AcDbEntity
100
AcDbLine
  8
Cutting
 62
256
370
-1
 48
1.0
  6
BYLAYER
 10
13.636460488183719
 20
3.2976072201406565
 30
0.0
 11
13.636460488183719
 21
4.547607220140657
 31
0.0
  0
LINE
  5
A1
100
AcDbEntity
100
AcDbLine
  8
Cutting
 62
256
370
-1
 48
1.0
  6
BYLAYER
 10
6.1364604881837179
 20
3.2976072201406565
 30
0.0
 11
6.2221590706845555
 21
3.2652499004874205
 31
0.0
  0
LINE
  5
A2
100
AcDbEntity
100
AcDbLine
  8
Cutting
 62
256
370
-1
 48
1.0
  6
BYLAYER
 10
6.2221590706845555
 20
3.2652499004874205
 30
0.0
 11
6.3051084894191165
 21
3.2263829851301025
 31
0.0
  0
LINE
  5
A3
100
AcDbEntity
100
AcDbLine
  8
Cutting
 62
256
370
-1
 48
1.0
  6
BYLAYER
 10
6.3051084894191165
 20
3.2263829851301025
 30
0.0
 11
6.3848151474941064
 21
3.1812377546366064
 31
0.0
  0
LINE
  5
A4
100
AcDbEntity
100
AcDbLine
  8
Cutting
 62
256
370
-1
 48
1.0
  6
BYLAYER
 10
6.3848151474941064
 20
3.1812377546366064
 30
0.0
 11
6.4608047443128411
 21
3.1300828491717283
 31
0.0
  0
LINE
  5
A5
100
AcDbEntity
100
AcDbLine
  8
Cutting
 62
256
370
-1
 48
1.0
  6
BYLAYER
 10
6.4608047443128411
 20
3.1300828491717283
 30
0.0
 11
6.5326250979374043
 21
3.0732226699332035
 31
0.0
  0
LINE
  5
A6
100
AcDbEntity
100
AcDbLine
  8
Cutting
 62
256
370
-1
 48
1.0
  6
BYLAYER
 10
6.5326250979374043
 20
3.0732226699332035
 30
0.0
 11
6.5998488358320371
 21
3.0109955677889748
 31
0.0
  0
LINE
  5
A7
100
AcDbEntity
100
AcDbLine
  8
Cutting
 62
256
370
-1
 48
1.0
  6
BYLAYER
 10
6.5998488358320371
 20
3.0109955677889748
 30
0.0
 11
6.6620759379762644
 21
2.9437718298943429
 31
0.0
  0
LINE
  5
A8
100
AcDbEntity
100
AcDbLine
  8
Cutting
 62
256
370
-1
 48
1.0
  6
BYLAYER
 10
6.6620759379762644
 20
2.9437718298943429
 30
0.0
 11
6.7189361172147892
 21
2.8719514762697802
 31
0.0
  0
LINE
  5
A9
100
AcDbEntity
100
AcDbLine
  8
Cutting
 62
256
370
-1
 48
1.0
  6
BYLAYER
 10
6.7189361172147892
 20
2.8719514762697802
 30
0.0
 11
6.7700910226796678
 21
2.7959618794510455
 31
0.0
  0
LINE
  5
AA
100
AcDbEntity
100
AcDbLine
  8
Cutting
 62
256
370
-1
 48
1.0
  6
BYLAYER
 10
6.7700910226796678
 20
2.7959618794510455
 30
0.0
 11
6.8152362531731638
 21
2.7162552213760542
 31
0.0
  0
LINE
  5
AB
100
AcDbEntity
100
AcDbLine
  8
Cutting
 62
256
370
-1
 48
1.0
  6
BYLAYER
 10
6.8152362531731638
 20
2.7162552213760542
 30
0.0
 11
6.8541031685304814
 21
2.6333058026414937
 31
0.0
  0
LINE
  5
AC
100
AcDbEntity
100
AcDbLine
  8
Cutting
 62
256
370
-1
 48
1.0
  6
BYLAYER
 10
6.8541031685304814
 20
2.6333058026414937
 30
0.0
 11
6.8864604881837179
 21
2.5476072201406565
 31
0.0
  0
LINE
  5
AD
100
AcDbEntity
100
AcDbLine
  8
Cutting
 62
256
370
-1
 48
1.0
  6
BYLAYER
 10
6.8864604881837179
 20
2.5476072201406565
 30
0.0
 11
6.8864604881837179
 21
2.4226072201406565
 31
0.0
  0
LINE
  5
AE
100
AcDbEntity
100
AcDbLine
  8
Cutting
 62
256
370
-1
 48
1.0
  6
BYLAYER
 10
6.1364604881837179
 20
4.547607220140657
 30
0.0
 11
6.2221590706845555
 21
4.5799645397938917
 31
0.0
  0
LINE
  5
AF
100
AcDbEntity
100
AcDbLine
  8
Cutting
 62
256
370
-1
 48
1.0
  6
BYLAYER
 10
6.2221590706845555
 20
4.5799645397938917
 30
0.0
 11
6.3051084894191165
 21
4.6188314551512111
 31
0.0
  0
LINE
  5
B0
100
AcDbEntity
100
AcDbLine
  8
Cutting
 62
256
370
-1
 48
1.0
  6
BYLAYER
 10
6.3051084894191165
 20
4.6188314551512111
 30
0.0
 11
6.3848151474941064
 21
4.6639766856447071
 31
0.0
  0
LINE
  5
B1
100
AcDbEntity
100
AcDbLine
  8
Cutting
 62
256
370
-1
 48
1.0
  6
BYLAYER
 10
6.3848151474941064
 20
4.6639766856447071
 30
0.0
 11
6.4608047443128411
 21
4.7151315911095839
 31
0.0
  0
LINE
  5
B2
100
AcDbEntity
100
AcDbLine
  8
Cutting
 62
256
370
-1
 48
1.0
  6
BYLAYER
 10
6.4608047443128411
 20
4.7151315911095839
 30
0.0
 11
6.5326250979374043
 21
4.7719917703481105
 31
0.0
  0
LINE
  5
B3
100
AcDbEntity
100
AcDbLine
  8
Cutting
 62
256
370
-1
 48
1.0
  6
BYLAYER
 10
6.5326250979374043
 20
4.7719917703481105
 30
0.0
 11
6.5998488358320371
 21
4.8342188724923378
 31
0.0
  0
LINE
  5
B4
100
AcDbEntity
100
AcDbLine
  8
Cutting
 62
256
370
-1
 48
1.0
  6
BYLAYER
 10
6.5998488358320371
 20
4.8342188724923378
 30
0.0
 11
6.6620759379762644
 21
4.9014426103869706
 31
0.0
  0
LINE
  5
B5
100
AcDbEntity
100
AcDbLine
  8
Cutting
 62
256
370
-1
 48
1.0
  6
BYLAYER
 10
6.6620759379762644
 20
4.9014426103869706
 30
0.0
 11
6.7189361172147892
 21
4.9732629640115338
 31
0.0
  0
LINE
  5
B6
100
AcDbEntity
100
AcDbLine
  8
Cutting
 62
256
370
-1
 48
1.0
  6
BYLAYER
 10
6.7189361172147892
 20
4.9732629640115338
 30
0.0
 11
6.7700910226796678
 21
5.0492525608302685
 31
0.0
  0
LINE
  5
B7
100
AcDbEntity
100
AcDbLine
  8
Cutting
 62
256
370
-1
 48
1.0
  6
BYLAYER
 10
6.7700910226796678
 20
5.0492525608302685
 30
0.0
 11
6.8152362531731638
 21
5.1289592189052584
 31
0.0
  0
LINE
  5
B8
100
AcDbEntity
100
AcDbLine
  8
Cutting
 62
256
370
-1
 48
1.0
  6
BYLAYER
 10
6.8152362531731638
 20
5.1289592189052584
 30
0.0
 11
6.8541031685304814
 21
5.2119086376398194
 31
0.0
  0
LINE
  5
B9
100
AcDbEntity
100
AcDbLine
  8
Cutting
 62
256
370
-1
 48
1.0
  6
BYLAYER
 10
6.8541031685304814
 20
5.2119086376398194
 30
0.0
 11
6.8864604881837179
 21
5.297607220140657
 31
0.0
  0
LINE
  5
BA
100
AcDbEntity
100
AcDbLine
  8
Cutting
 62
256
370
-1
 48
1.0
  6
BYLAYER
 10
6.8864604881837179
 20
5.422607220140657
 30
0.0
 11
11.136460488183719
 21
5.422607220140657
 31
0.0
  0
LINE
  5
BB
100
AcDbEntity
100
AcDbLine
  8
Cutting
 62
256
370
-1
 48
1.0
  6
BYLAYER
 10
6.8864604881837179
 20
5.297607220140657
 30
0.0
 11
6.8864604881837179
 21
5.422607220140657
 31
0.0
  0
LINE
  5
BC
100
AcDbEntity
100
AcDbLine
  8
Cutting
 62
256
370
-1
 48
1.0
  6
BYLAYER
 10
0.6364604881837184
 20
2.9178301086364451
 30
0.0
 11
0.781455947519746
 21
3.0452001024093538
 31
0.0
  0
LINE
  5
BD
100
AcDbEntity
100
AcDbLine
  8
Cutting
 62
256
370
-1
 48
1.0
  6
BYLAYER
 10
0.781455947519746
 20
3.0452001024093538
 30
0.0
 11
0.905116548891169
 21
3.1933718075700699
 31
0.0
  0
LINE
  5
BE
100
AcDbEntity
100
AcDbLine
  8
Cutting
 62
256
370
-1
 48
1.0
  6
BYLAYER
 10
0.905116548891169
 20
3.1933718075700699
 30
0.0
 11
1.0044944769336133
 21
3.3588131142614976
 31
0.0
  0
LINE
  5
BF
100
AcDbEntity
100
AcDbLine
  8
Cutting
 62
256
370
-1
 48
1.0
  6
BYLAYER
 10
1.0044944769336133
 20
3.3588131142614976
 30
0.0
 11
1.0772207654612891
 21
3.5375802407103096
 31
0.0
  0
LINE
  5
C0
100
AcDbEntity
100
AcDbLine
  8
Cutting
 62
256
370
-1
 48
1.0
  6
BYLAYER
 10
1.0772207654612891
 20
3.5375802407103096
 30
0.0
 11
1.1215617687670081
 21
3.7254117449038784
 31
0.0
  0
LINE
  5
C1
100
AcDbEntity
100
AcDbLine
  8
Cutting
 62
256
370
-1
 48
1.0
  6
BYLAYER
 10
1.1215617687670081
 20
3.7254117449038784
 30
0.0
 11
1.1364604881837184
 21
3.9178301086364455
 31
0.0
  0
LINE
  5
C2
100
AcDbEntity
100
AcDbLine
  8
Cutting
 62
256
370
-1
 48
1.0
  6
BYLAYER
 10
1.1364604881837184
 20
3.9178301086364455
 30
0.0
 11
1.1215617687670076
 21
4.1102484723690118
 31
0.0
  0
LINE
  5
C3
100
AcDbEntity
100
AcDbLine
  8
Cutting
 62
256
370
-1
 48
1.0
  6
BYLAYER
 10
1.1215617687670076
 20
4.1102484723690118
 30
0.0
 11
1.0772207654612891
 21
4.2980799765625806
 31
0.0
  0
LINE
  5
C4
100
AcDbEntity
100
AcDbLine
  8
Cutting
 62
256
370
-1
 48
1.0
  6
BYLAYER
 10
1.0772207654612891
 20
4.2980799765625806
 30
0.0
 11
1.0044944769336133
 21
4.4768471030113925
 31
0.0
  0
LINE
  5
C5
100
AcDbEntity
100
AcDbLine
  8
Cutting
 62
256
370
-1
 48
1.0
  6
BYLAYER
 10
1.0044944769336133
 20
4.4768471030113925
 30
0.0
 11
0.905116548891169
 21
4.6422884097028199
 31
0.0
  0
LINE
  5
C6
100
AcDbEntity
100
AcDbLine
  8
Cutting
 62
256
370
-1
 48
1.0
  6
BYLAYER
 10
0.905116548891169
 20
4.6422884097028199
 30
0.0
 11
0.7814559475197456
 21
4.7904601148635368
 31
0.0
  0
LINE
  5
C7
100
AcDbEntity
100
AcDbLine
  8
Cutting
 62
256
370
-1
 48
1.0
  6
BYLAYER
 10
0.7814559475197456
 20
4.7904601148635368
 30
0.0
 11
0.6364604881837184
 21
4.917830108636446
 31
0.0
  0
LINE
  5
C8
100
AcDbEntity
100
AcDbLine
  8
Cutting
 62
256
370
-1
 48
1.0
  6
BYLAYER
 10
11.261460488183719
 20
4.672607220140657
 30
0.0
 11
11.245748547588271
 21
4.6751809268600883
 31
0.0
  0
LINE
  5
C9
100
AcDbEntity
100
AcDbLine
  8
Cutting
 62
256
370
-1
 48
1.0
  6
BYLAYER
 10
11.245748547588271
 20
4.6751809268600883
 30
0.0
 11
11.230428231750679
 21
4.679514166547559
 31
0.0
  0
LINE
  5
CA
100
AcDbEntity
100
AcDbLine
  8
Cutting
 62
256
370
-1
 48
1.0
  6
BYLAYER
 10
11.230428231750679
 20
4.679514166547559
 30
0.0
 11
11.215695922744118
 21
4.6855513939648166
 31
0.0
  0
LINE
  5
CB
100
AcDbEntity
100
AcDbLine
  8
Cutting
 62
256
370
-1
 48
1.0
  6
BYLAYER
 10
11.215695922744118
 20
4.6855513939648166
 30
0.0
 11
11.201740465329738
 21
4.6932152214620917
 31
0.0
  0
LINE
  5
CC
100
AcDbEntity
100
AcDbLine
  8
Cutting
 62
256
370
-1
 48
1.0
  6
BYLAYER
 10
11.201740465329738
 20
4.6932152214620917
 30
0.0
 11
11.188740746267321
 21
4.7024074109646463
 31
0.0
  0
LINE
  5
CD
100
AcDbEntity
100
AcDbLine
  8
Cutting
 62
256
370
-1
 48
1.0
  6
BYLAYER
 10
11.188740746267321
 20
4.7024074109646463
 30
0.0
 11
11.176863401271639
 21
4.7130101332285772
 31
0.0
  0
LINE
  5
CE
100
AcDbEntity
100
AcDbLine
  8
Cutting
 62
256
370
-1
 48
1.0
  6
BYLAYER
 10
11.176863401271639
 20
4.7130101332285772
 30
0.0
 11
11.166260679007706
 21
4.7248874782242609
 31
0.0
  0
LINE
  5
CF
100
AcDbEntity
100
AcDbLine
  8
Cutting
 62
256
370
-1
 48
1.0
  6
BYLAYER
 10
11.166260679007706
 20
4.7248874782242609
 30
0.0
 11
11.157068489505154
 21
4.7378871972866765
 31
0.0
  0
LINE
  5
D0
100
AcDbEntity
100
AcDbLine
  8
Cutting
 62
256
370
-1
 48
1.0
  6
BYLAYER
 10
11.157068489505154
 20
4.7378871972866765
 30
0.0
 11
11.149404662007878
 21
4.7518426547010559
 31
0.0
  0
LINE
  5
D1
100
AcDbEntity
100
AcDbLine
  8
Cutting
 62
256
370
-1
 48
1.0
  6
BYLAYER
 10
11.149404662007878
 20
4.7518426547010559
 30
0.0
 11
11.143367434590619
 21
4.7665749637076189
 31
0.0
  0
LINE
  5
D2
100
AcDbEntity
100
AcDbLine
  8
Cutting
 62
256
370
-1
 48
1.0
  6
BYLAYER
 10
11.143367434590619
 20
4.7665749637076189
 30
0.0
 11
11.13903419490315
 21
4.7818952795452088
 31
0.0
  0
LINE
  5
D3
100
AcDbEntity
100
AcDbLine
  8
Cutting
 62
256
370
-1
 48
1.0
  6
BYLAYER
 10
11.13903419490315
 20
4.7818952795452088
 30
0.0
 11
11.136460488183719
 21
4.797607220140657
 31
0.0
  0
LINE
  5
D4
100
AcDbEntity
100
AcDbLine
  8
Cutting
 62
256
370
-1
 48
1.0
  6
BYLAYER
 10
11.136460488183719
 20
4.797607220140657
 30
0.0
 11
11.136460488183719
 21
5.422607220140657
 31
0.0
  0
LINE
  5
D5
100
AcDbEntity
100
AcDbLine
  8
Cutting
 62
256
370
-1
 48
1.0
  6
BYLAYER
 10
11.261460488183719
 20
3.1726072201406565
 30
0.0
 11
11.245748547588271
 21
3.1700335134212265
 31
0.0
  0
LINE
  5
D6
100
AcDbEntity
100
AcDbLine
  8
Cutting
 62
256
370
-1
 48
1.0
  6
BYLAYER
 10
11.245748547588271
 20
3.1700335134212265
 30
0.0
 11
11.230428231750679
 21
3.165700273733755
 31
0.0
  0
LINE
  5
D7
100
AcDbEntity
100
AcDbLine
  8
Cutting
 62
256
370
-1
 48
1.0
  6
BYLAYER
 10
11.230428231750679
 20
3.165700273733755
 30
0.0
 11
11.215695922744118
 21
3.1596630463164974
 31
0.0
  0
LINE
  5
D8
100
AcDbEntity
100
AcDbLine
  8
Cutting
 62
256
370
-1
 48
1.0
  6
BYLAYER
 10
11.215695922744118
 20
3.1596630463164974
 30
0.0
 11
11.201740465329735
 21
3.1519992188192218
 31
0.0
  0
LINE
  5
D9
100
AcDbEntity
100
AcDbLine
  8
Cutting
 62
256
370
-1
 48
1.0
  6
BYLAYER
 10
11.201740465329735
 20
3.1519992188192218
 30
0.0
 11
11.188740746267321
 21
3.1428070293166681
 31
0.0
  0
LINE
  5
DA
100
AcDbEntity
100
AcDbLine
  8
Cutting
 62
256
370
-1
 48
1.0
  6
BYLAYER
 10
11.188740746267321
 20
3.1428070293166681
 30
0.0
 11
11.176863401271639
 21
3.1322043070527363
 31
0.0
  0
LINE
  5
DB
100
AcDbEntity
100
AcDbLine
  8
Cutting
 62
256
370
-1
 48
1.0
  6
BYLAYER
 10
11.176863401271639
 20
3.1322043070527363
 30
0.0
 11
11.166260679007706
 21
3.1203269620570531
 31
0.0
  0
LINE
  5
DC
100
AcDbEntity
100
AcDbLine
  8
Cutting
 62
256
370
-1
 48
1.0
  6
BYLAYER
 10
11.166260679007706
 20
3.1203269620570531
 30
0.0
 11
11.157068489505154
 21
3.1073272429946384
 31
0.0
  0
LINE
  5
DD
100
AcDbEntity
100
AcDbLine
  8
Cutting
 62
256
370
-1
 48
1.0
  6
BYLAYER
 10
11.157068489505154
 20
3.1073272429946384
 30
0.0
 11
11.149404662007878
 21
3.0933717855802585
 31
0.0
  0
LINE
  5
DE
100
AcDbEntity
100
AcDbLine
  8
Cutting
 62
256
370
-1
 48
1.0
  6
BYLAYER
 10
11.149404662007878
 20
3.0933717855802585
 30
0.0
 11
11.143367434590619
 21
3.0786394765736951
 31
0.0
  0
LINE
  5
DF
100
AcDbEntity
100
AcDbLine
  8
Cutting
 62
256
370
-1
 48
1.0
  6
BYLAYER
 10
11.143367434590619
 20
3.0786394765736951
 30
0.0
 11
11.13903419490315
 21
3.0633191607361057
 31
0.0
  0
LINE
  5
E0
100
AcDbEntity
100
AcDbLine
  8
Cutting
 62
256
370
-1
 48
1.0
  6
BYLAYER
 10
11.13903419490315
 20
3.0633191607361057
 30
0.0
 11
11.136460488183719
 21
3.0476072201406565
 31
0.0
  0
LINE
  5
E1
100
AcDbEntity
100
AcDbLine
  8
Engrave
 62
256
370
-1
 48
1.0
  6
BYLAYER
 10
6.9489604881837179
 20
4.547607220140657
 30
0.0
 11
6.9468308523267845
 21
4.563783410459564
 31
0.0
  0
LINE
  5
E2
100
AcDbEntity
100
AcDbLine
  8
Engrave
 62
256
370
-1
 48
1.0
  6
BYLAYER
 10
6.9468308523267845
 20
4.563783410459564
 30
0.0
 11
6.9405870759202459
 21
4.578857220140657
 31
0.0
  0
LINE
  5
E3
100
AcDbEntity
100
AcDbLine
  8
Engrave
 62
256
370
-1
 48
1.0
  6
BYLAYER
 10
6.9405870759202459
 20
4.578857220140657
 30
0.0
 11
6.9306546620078775
 21
4.5918013939648166
 31
0.0
  0
LINE
  5
E4
100
AcDbEntity
100
AcDbLine
  8
Engrave
 62
256
370
-1
 48
1.0
  6
BYLAYER
 10
6.9306546620078775
 20
4.5918013939648166
 30
0.0
 11
6.9177104881837179
 21
4.601733807877185
 31
0.0
  0
LINE
  5
E5
100
AcDbEntity
100
AcDbLine
  8
Engrave
 62
256
370
-1
 48
1.0
  6
BYLAYER
 10
6.9177104881837179
 20
4.601733807877185
 30
0.0
 11
6.902636678502625
 21
4.6079775842837236
 31
0.0
  0
LINE
  5
E6
100
AcDbEntity
100
AcDbLine
  8
Engrave
 62
256
370
-1
 48
1.0
  6
BYLAYER
 10
6.902636678502625
 20
4.6079775842837236
 30
0.0
 11
6.8864604881837179
 21
4.610107220140657
 31
0.0
  0
LINE
  5
E7
100
AcDbEntity
100
AcDbLine
  8
Engrave
 62
256
370
-1
 48
1.0
  6
BYLAYER
 10
6.8864604881837179
 20
4.610107220140657
 30
0.0
 11
6.8702842978648109
 21
4.6079775842837236
 31
0.0
  0
LINE
  5
E8
100
AcDbEntity
100
AcDbLine
  8
Engrave
 62
256
370
-1
 48
1.0
  6
BYLAYER
 10
6.8702842978648109
 20
4.6079775842837236
 30
0.0
 11
6.8552104881837179
 21
4.601733807877185
 31
0.0
  0
LINE
  5
E9
100
AcDbEntity
100
AcDbLine
  8
Engrave
 62
256
370
-1
 48
1.0
  6
BYLAYER
 10
6.8552104881837179
 20
4.601733807877185
 30
0.0
 11
6.8422663143595583
 21
4.5918013939648166
 31
0.0
  0
LINE
  5
EA
100
AcDbEntity
100
AcDbLine
  8
Engrave
 62
256
370
-1
 48
1.0
  6
BYLAYER
 10
6.8422663143595583
 20
4.5918013939648166
 30
0.0
 11
6.8323339004471899
 21
4.578857220140657
 31
0.0
  0
LINE
  5
EB
100
AcDbEntity
100
AcDbLine
  8
Engrave
 62
256
370
-1
 48
1.0
  6
BYLAYER
 10
6.8323339004471899
 20
4.578857220140657
 30
0.0
 11
6.8260901240406513
 21
4.563783410459564
 31
0.0
  0
LINE
  5
EC
100
AcDbEntity
100
AcDbLine
  8
Engrave
 62
256
370
-1
 48
1.0
  6
BYLAYER
 10
6.8260901240406513
 20
4.563783410459564
 30
0.0
 11
6.8239604881837179
 21
4.547607220140657
 31
0.0
  0
LINE
  5
ED
100
AcDbEntity
100
AcDbLine
  8
Engrave
 62
256
370
-1
 48
1.0
  6
BYLAYER
 10
6.8239604881837179
 20
4.547607220140657
 30
0.0
 11
6.8260901240406513
 21
4.5314310298217499
 31
0.0
  0
LINE
  5
EE
100
AcDbEntity
100
AcDbLine
  8
Engrave
 62
256
370
-1
 48
1.0
  6
BYLAYER
 10
6.8260901240406513
 20
4.5314310298217499
 30
0.0
 11
6.8323339004471899
 21
4.516357220140657
 31
0.0
  0
LINE
  5
EF
100
AcDbEntity
100
AcDbLine
  8
Engrave
 62
256
370
-1
 48
1.0
  6
BYLAYER
 10
6.8323339004471899
 20
4.516357220140657
 30
0.0
 11
6.8422663143595583
 21
4.5034130463164974
 31
0.0
  0
LINE
  5
F0
100
AcDbEntity
100
AcDbLine
  8
Engrave
 62
256
370
-1
 48
1.0
  6
BYLAYER
 10
6.8422663143595583
 20
4.5034130463164974
 30
0.0
 11
6.8552104881837179
 21
4.493480632404129
 31
0.0
  0
LINE
  5
F1
100
AcDbEntity
100
AcDbLine
  8
Engrave
 62
256
370
-1
 48
1.0
  6
BYLAYER
 10
6.8552104881837179
 20
4.493480632404129
 30
0.0
 11
6.8702842978648109
 21
4.4872368559975904
 31
0.0
  0
LINE
  5
F2
100
AcDbEntity
100
AcDbLine
  8
Engrave
 62
256
370
-1
 48
1.0
  6
BYLAYER
 10
6.8702842978648109
 20
4.4872368559975904
 30
0.0
 11
6.8864604881837179
 21
4.485107220140657
 31
0.0
  0
LINE
  5
F3
100
AcDbEntity
100
AcDbLine
  8
Engrave
 62
256
370
-1
 48
1.0
  6
BYLAYER
 10
6.8864604881837179
 20
4.485107220140657
 30
0.0
 11
6.902636678502625
 21
4.4872368559975904
 31
0.0
  0
LINE
  5
F4
100
AcDbEntity
100
AcDbLine
  8
Engrave
 62
256
370
-1
 48
1.0
  6
BYLAYER
 10
6.902636678502625
 20
4.4872368559975904
 30
0.0
 11
6.9177104881837179
 21
4.493480632404129
 31
0.0
  0
LINE
  5
F5
100
AcDbEntity
100
AcDbLine
  8
Engrave
 62
256
370
-1
 48
1.0
  6
BYLAYER
 10
6.9177104881837179
 20
4.493480632404129
 30
0.0
 11
6.9306546620078775
 21
4.5034130463164974
 31
0.0
  0
LINE
  5
F6
100
AcDbEntity
100
AcDbLine
  8
Engrave
 62
256
370
-1
 48
1.0
  6
BYLAYER
 10
6.9306546620078775
 20
4.5034130463164974
 30
0.0
 11
6.9405870759202459
 21
4.516357220140657
 31
0.0
  0
LINE
  5
F7
100
AcDbEntity
100
AcDbLine
  8
Engrave
 62
256
370
-1
 48
1.0
  6
BYLAYER
 10
6.9405870759202459
 20
4.516357220140657
 30
0.0
 11
6.9468308523267845
 21
4.5314310298217499
 31
0.0
  0
LINE
  5
F8
100
AcDbEntity
100
AcDbLine
  8
Engrave
 62
256
370
-1
 48
1.0
  6
BYLAYER
 10
6.9468308523267845
 20
4.5314310298217499
 30
0.0
 11
6.9489604881837179
 21
4.547607220140657
 31
0.0
  0
LINE
  5
F9
100
AcDbEntity
100
AcDbLine
  8
Engrave
 62
256
370
-1
 48
1.0
  6
BYLAYER
 10
6.8864604881837179
 20
4.610107220140657
 30
0.0
 11
6.8864604881837179
 21
4.547607220140657
 31
0.0
  0
LINE
  5
FA
100
AcDbEntity
100
AcDbLine
  8
Engrave
 62
256
370
-1
 48
1.0
  6
BYLAYER
 10
10.448960488183719
 20
4.547607220140657
 30
0.0
 11
10.446830852326784
 21
4.563783410459564
 31
0.0
  0
LINE
  5
FB
100
AcDbEntity
100
AcDbLine
  8
Engrave
 62
256
370
-1
 48
1.0
  6
BYLAYER
 10
10.446830852326784
 20
4.563783410459564
 30
0.0
 11
10.440587075920245
 21
4.578857220140657
 31
0.0
  0
LINE
  5
FC
100
AcDbEntity
100
AcDbLine
  8
Engrave
 62
256
370
-1
 48
1.0
  6
BYLAYER
 10
10.440587075920245
 20
4.578857220140657
 30
0.0
 11
10.430654662007878
 21
4.5918013939648166
 31
0.0
  0
LINE
  5
FD
100
AcDbEntity
100
AcDbLine
  8
Engrave
 62
256
370
-1
 48
1.0
  6
BYLAYER
 10
10.430654662007878
 20
4.5918013939648166
 30
0.0
 11
10.417710488183719
 21
4.601733807877185
 31
0.0
  0
LINE
  5
FE
100
AcDbEntity
100
AcDbLine
  8
Engrave
 62
256
370
-1
 48
1.0
  6
BYLAYER
 10
10.417710488183719
 20
4.601733807877185
 30
0.0
 11
10.402636678502624
 21
4.6079775842837236
 31
0.0
  0
LINE
  5
FF
100
AcDbEntity
100
AcDbLine
  8
Engrave
 62
256
370
-1
 48
1.0
  6
BYLAYER
 10
10.402636678502624
 20
4.6079775842837236
 30
0.0
 11
10.386460488183719
 21
4.610107220140657
 31
0.0
  0
LINE
  5
100
100
AcDbEntity
100
AcDbLine
  8
Engrave
 62
256
370
-1
 48
1.0
  6
BYLAYER
 10
10.386460488183719
 20
4.610107220140657
 30
0.0
 11
10.37028429786481
 21
4.6079775842837236
 31
0.0
  0
LINE
  5
101
100
AcDbEntity
100
AcDbLine
  8
Engrave
 62
256
370
-1
 48
1.0
  6
BYLAYER
 10
10.37028429786481
 20
4.6079775842837236
 30
0.0
 11
10.355210488183719
 21
4.601733807877185
 31
0.0
  0
LINE
  5
102
100
AcDbEntity
100
AcDbLine
  8
Engrave
 62
256
370
-1
 48
1.0
  6
BYLAYER
 10
10.355210488183719
 20
4.601733807877185
 30
0.0
 11
10.342266314359559
 21
4.5918013939648166
 31
0.0
  0
LINE
  5
103
100
AcDbEntity
100
AcDbLine
  8
Engrave
 62
256
370
-1
 48
1.0
  6
BYLAYER
 10
10.342266314359559
 20
4.5918013939648166
 30
0.0
 11
10.332333900447189
 21
4.578857220140657
 31
0.0
  0
LINE
  5
104
100
AcDbEntity
100
AcDbLine
  8
Engrave
 62
256
370
-1
 48
1.0
  6
BYLAYER
 10
10.332333900447189
 20
4.578857220140657
 30
0.0
 11
10.32609012404065
 21
4.563783410459564
 31
0.0
  0
LINE
  5
105
100
AcDbEntity
100
AcDbLine
  8
Engrave
 62
256
370
-1
 48
1.0
  6
BYLAYER
 10
10.32609012404065
 20
4.563783410459564
 30
0.0
 11
10.323960488183719
 21
4.547607220140657
 31
0.0
  0
LINE
  5
106
100
AcDbEntity
100
AcDbLine
  8
Engrave
 62
256
370
-1
 48
1.0
  6
BYLAYER
 10
10.323960488183719
 20
4.547607220140657
 30
0.0
 11
10.32609012404065
 21
4.5314310298217499
 31
0.0
  0
LINE
  5
107
100
AcDbEntity
100
AcDbLine
  8
Engrave
 62
256
370
-1
 48
1.0
  6
BYLAYER
 10
10.32609012404065
 20
4.5314310298217499
 30
0.0
 11
10.332333900447189
 21
4.516357220140657
 31
0.0
  0
LINE
  5
108
100
AcDbEntity
100
AcDbLine
  8
Engrave
 62
256
370
-1
 48
1.0
  6
BYLAYER
 10
10.332333900447189
 20
4.516357220140657
 30
0.0
 11
10.342266314359559
 21
4.5034130463164974
 31
0.0
  0
LINE
  5
109
100
AcDbEntity
100
AcDbLine
  8
Engrave
 62
256
370
-1
 48
1.0
  6
BYLAYER
 10
10.342266314359559
 20
4.5034130463164974
 30
0.0
 11
10.355210488183719
 21
4.493480632404129
 31
0.0
  0
LINE
  5
10A
100
AcDbEntity
100
AcDbLine
  8
Engrave
 62
256
370
-1
 48
1.0
  6
BYLAYER
 10
10.355210488183719
 20
4.493480632404129
 30
0.0
 11
10.37028429786481
 21
4.4872368559975904
 31
0.0
  0
LINE
  5
10B
100
AcDbEntity
100
AcDbLine
  8
Engrave
 62
256
370
-1
 48
1.0
  6
BYLAYER
 10
10.37028429786481
 20
4.4872368559975904
 30
0.0
 11
10.386460488183719
 21
4.485107220140657
 31
0.0
  0
LINE
  5
10C
100
AcDbEntity
100
AcDbLine
  8
Engrave
 62
256
370
-1
 48
1.0
  6
BYLAYER
 10
10.386460488183719
 20
4.485107220140657
 30
0.0
 11
10.402636678502624
 21
4.4872368559975904
 31
0.0
  0
LINE
  5
10D
100
AcDbEntity
100
AcDbLine
  8
Engrave
 62
256
370
-1
 48
1.0
  6
BYLAYER
 10
10.402636678502624
 20
4.4872368559975904
 30
0.0
 11
10.417710488183719
 21
4.493480632404129
 31
0.0
  0
LINE
  5
10E
100
AcDbEntity
100
AcDbLine
  8
Engrave
 62
256
370
-1
 48
1.0
  6
BYLAYER
 10
10.417710488183719
 20
4.493480632404129
 30
0.0
 11
10.430654662007878
 21
4.5034130463164974
 31
0.0
  0
LINE
  5
10F
100
AcDbEntity
100
AcDbLine
  8
Engrave
 62
256
370
-1
 48
1.0
  6
BYLAYER
 10
10.430654662007878
 20
4.5034130463164974
 30
0.0
 11
10.440587075920245
 21
4.516357220140657
 31
0.0
  0
LINE
  5
110
100
AcDbEntity
100
AcDbLine
  8
Engrave
 62
256
370
-1
 48
1.0
  6
BYLAYER
 10
10.440587075920245
 20
4.516357220140657
 30
0.0
 11
10.446830852326784
 21
4.5314310298217499
 31
0.0
  0
LINE
  5
111
100
AcDbEntity
100
AcDbLine
  8
Engrave
 62
256
370
-1
 48
1.0
  6
BYLAYER
 10
10.446830852326784
 20
4.5314310298217499
 30
0.0
 11
10.448960488183719
 21
4.547607220140657
 31
0.0
  0
LINE
  5
112
100
AcDbEntity
100
AcDbLine
  8
Engrave
 62
256
370
-1
 48
1.0
  6
BYLAYER
 10
10.386460488183719
 20
4.610107220140657
 30
0.0
 11
10.386460488183719
 21
4.547607220140657
 31
0.0
  0
LINE
  5
113
100
AcDbEntity
100
AcDbLine
  8
Engrave
 62
256
370
-1
 48
1.0
  6
BYLAYER
 10
13.136460488183719
 20
3.9848054913094533
 30
0.0
 11
13.136460488183719
 21
3.922607220140657
 31
0.0
  0
LINE
  5
114
100
AcDbEntity
100
AcDbLine
  8
Engrave
 62
256
370
-1
 48
1.0
  6
BYLAYER
 10
1.94961787834607
 20
3.9178301086364455
 30
0.0
 11
1.9474658424625488
 21
3.9341764440494327
 31
0.0
  0
LINE
  5
115
100
AcDbEntity
100
AcDbLine
  8
Engrave
 62
256
370
-1
 48
1.0
  6
BYLAYER
 10
1.9474658424625488
 20
3.9341764440494327
 30
0.0
 11
1.9411563925010404
 21
3.9494088037176214
 31
0.0
  0
LINE
  5
116
100
AcDbEntity
100
AcDbLine
  8
Engrave
 62
256
370
-1
 48
1.0
  6
BYLAYER
 10
1.9411563925010404
 20
3.9494088037176214
 30
0.0
 11
1.9311195070495617
 21
3.9624891275022889
 31
0.0
  0
LINE
  5
117
100
AcDbEntity
100
AcDbLine
  8
Engrave
 62
256
370
-1
 48
1.0
  6
BYLAYER
 10
1.9311195070495617
 20
3.9624891275022889
 30
0.0
 11
1.9180391832648942
 21
3.9725260129537676
 31
0.0
  0
LINE
  5
118
100
AcDbEntity
100
AcDbLine
  8
Engrave
 62
256
370
-1
 48
1.0
  6
BYLAYER
 10
1.9180391832648942
 20
3.9725260129537676
 30
0.0
 11
1.9028068235967055
 21
3.9788354629152765
 31
0.0
  0
LINE
  5
119
100
AcDbEntity
100
AcDbLine
  8
Engrave
 62
256
370
-1
 48
1.0
  6
BYLAYER
 10
1.9028068235967055
 20
3.9788354629152765
 30
0.0
 11
1.8864604881837184
 21
3.9809874987987972
 31
0.0
  0
LINE
  5
11A
100
AcDbEntity
100
AcDbLine
  8
Engrave
 62
256
370
-1
 48
1.0
  6
BYLAYER
 10
1.8864604881837184
 20
3.9809874987987972
 30
0.0
 11
1.8701141527707312
 21
3.9788354629152765
 31
0.0
  0
LINE
  5
11B
100
AcDbEntity
100
AcDbLine
  8
Engrave
 62
256
370
-1
 48
1.0
  6
BYLAYER
 10
1.8701141527707312
 20
3.9788354629152765
 30
0.0
 11
1.8548817931025425
 21
3.9725260129537676
 31
0.0
  0
LINE
  5
11C
100
AcDbEntity
100
AcDbLine
  8
Engrave
 62
256
370
-1
 48
1.0
  6
BYLAYER
 10
1.8548817931025425
 20
3.9725260129537676
 30
0.0
 11
1.841801469317875
 21
3.9624891275022889
 31
0.0
  0
LINE
  5
11D
100
AcDbEntity
100
AcDbLine
  8
Engrave
 62
256
370
-1
 48
1.0
  6
BYLAYER
 10
1.841801469317875
 20
3.9624891275022889
 30
0.0
 11
1.8317645838663963
 21
3.9494088037176214
 31
0.0
  0
LINE
  5
11E
100
AcDbEntity
100
AcDbLine
  8
Engrave
 62
256
370
-1
 48
1.0
  6
BYLAYER
 10
1.8317645838663963
 20
3.9494088037176214
 30
0.0
 11
1.8254551339048879
 21
3.9341764440494327
 31
0.0
  0
LINE
  5
11F
100
AcDbEntity
100
AcDbLine
  8
Engrave
 62
256
370
-1
 48
1.0
  6
BYLAYER
 10
1.8254551339048879
 20
3.9341764440494327
 30
0.0
 11
1.8233030980213667
 21
3.9178301086364455
 31
0.0
  0
LINE
  5
120
100
AcDbEntity
100
AcDbLine
  8
Engrave
 62
256
370
-1
 48
1.0
  6
BYLAYER
 10
1.8233030980213667
 20
3.9178301086364455
 30
0.0
 11
1.8254551339048879
 21
3.9014837732234584
 31
0.0
  0
LINE
  5
121
100
AcDbEntity
100
AcDbLine
  8
Engrave
 62
256
370
-1
 48
1.0
  6
BYLAYER
 10
1.8254551339048879
 20
3.9014837732234584
 30
0.0
 11
1.8317645838663963
 21
3.8862514135552697
 31
0.0
  0
LINE
  5
122
100
AcDbEntity
100
AcDbLine
  8
Engrave
 62
256
370
-1
 48
1.0
  6
BYLAYER
 10
1.8317645838663963
 20
3.8862514135552697
 30
0.0
 11
1.841801469317875
 21
3.8731710897706022
 31
0.0
  0
LINE
  5
123
100
AcDbEntity
100
AcDbLine
  8
Engrave
 62
256
370
-1
 48
1.0
  6
BYLAYER
 10
1.841801469317875
 20
3.8731710897706022
 30
0.0
 11
1.8548817931025425
 21
3.8631342043191235
 31
0.0
  0
LINE
  5
124
100
AcDbEntity
100
AcDbLine
  8
Engrave
 62
256
370
-1
 48
1.0
  6
BYLAYER
 10
1.8548817931025425
 20
3.8631342043191235
 30
0.0
 11
1.8701141527707312
 21
3.8568247543576146
 31
0.0
  0
LINE
  5
125
100
AcDbEntity
100
AcDbLine
  8
Engrave
 62
256
370
-1
 48
1.0
  6
BYLAYER
 10
1.8701141527707312
 20
3.8568247543576146
 30
0.0
 11
1.8864604881837184
 21
3.8546727184740939
 31
0.0
  0
LINE
  5
126
100
AcDbEntity
100
AcDbLine
  8
Engrave
 62
256
370
-1
 48
1.0
  6
BYLAYER
 10
1.8864604881837184
 20
3.8546727184740939
 30
0.0
 11
1.9028068235967055
 21
3.8568247543576146
 31
0.0
  0
LINE
  5
127
100
AcDbEntity
100
AcDbLine
  8
Engrave
 62
256
370
-1
 48
1.0
  6
BYLAYER
 10
1.9028068235967055
 20
3.8568247543576146
 30
0.0
 11
1.9180391832648942
 21
3.8631342043191235
 31
0.0
  0
LINE
  5
128
100
AcDbEntity
100
AcDbLine
  8
Engrave
 62
256
370
-1
 48
1.0
  6
BYLAYER
 10
1.9180391832648942
 20
3.8631342043191235
 30
0.0
 11
1.9311195070495617
 21
3.8731710897706022
 31
0.0
  0
LINE
  5
129
100
AcDbEntity
100
AcDbLine
  8
Engrave
 62
256
370
-1
 48
1.0
  6
BYLAYER
 10
1.9311195070495617
 20
3.8731710897706022
 30
0.0
 11
1.9411563925010404
 21
3.8862514135552697
 31
0.0
  0
LINE
  5
12A
100
AcDbEntity
100
AcDbLine
  8
Engrave
 62
256
370
-1
 48
1.0
  6
BYLAYER
 10
1.9411563925010404
 20
3.8862514135552697
 30
0.0
 11
1.9474658424625488
 21
3.901483773223458
 31
0.0
  0
LINE
  5
12B
100
AcDbEntity
100
AcDbLine
  8
Engrave
 62
256
370
-1
 48
1.0
  6
BYLAYER
 10
1.9474658424625488
 20
3.901483773223458
 30
0.0
 11
1.94961787834607
 21
3.9178301086364455
 31
0.0
  0
LINE
  5
12C
100
AcDbEntity
100
AcDbLine
  8
Engrave
 62
256
370
-1
 48
1.0
  6
BYLAYER
 10
1.8864604881837184
 20
3.9809874987987972
 30
0.0
 11
1.8864604881837184
 21
3.9178301086364455
 31
0.0
  0
LINE
  5
12D
100
AcDbEntity
100
AcDbLine
  8
Engrave
 62
256
370
-1
 48
1.0
  6
BYLAYER
 10
1.8233030980213667
 20
3.9178301086364455
 30
0.0
 11
1.8864604881837184
 21
3.9178301086364455
 31
0.0
  0
LINE
  5
12E
100
AcDbEntity
100
AcDbLine
  8
Engrave
 62
256
370
-1
 48
1.0
  6
BYLAYER
 10
1.8864604881837184
 20
3.9178301086364455
 30
0.0
 11
1.8864604881837184
 21
3.8546727184740939
 31
0.0
  0
LINE
  5
12F
100
AcDbEntity
100
AcDbLine
  8
Engrave
 62
256
370
-1
 48
1.0
  6
BYLAYER
 10
1.8864604881837184
 20
3.9178301086364455
 30
0.0
 11
1.94961787834607
 21
3.9178301086364455
 31
0.0
  0
LINE
  5
130
100
AcDbEntity
100
AcDbLine
  8
Engrave
 62
256
370
-1
 48
1.0
  6
BYLAYER
 10
6.8239604881837179
 20
4.547607220140657
 30
0.0
 11
6.8864604881837179
 21
4.547607220140657
 31
0.0
  0
LINE
  5
131
100
AcDbEntity
100
AcDbLine
  8
Engrave
 62
256
370
-1
 48
1.0
  6
BYLAYER
 10
6.8864604881837179
 20
4.547607220140657
 30
0.0
 11
6.8864604881837179
 21
4.485107220140657
 31
0.0
  0
LINE
  5
132
100
AcDbEntity
100
AcDbLine
  8
Engrave
 62
256
370
-1
 48
1.0
  6
BYLAYER
 10
6.8864604881837179
 20
4.547607220140657
 30
0.0
 11
6.9489604881837179
 21
4.547607220140657
 31
0.0
  0
LINE
  5
133
100
AcDbEntity
100
AcDbLine
  8
Engrave
 62
256
370
-1
 48
1.0
  6
BYLAYER
 10
10.448960488183719
 20
4.547607220140657
 30
0.0
 11
10.386460488183719
 21
4.547607220140657
 31
0.0
  0
LINE
  5
134
100
AcDbEntity
100
AcDbLine
  8
Engrave
 62
256
370
-1
 48
1.0
  6
BYLAYER
 10
10.386460488183719
 20
4.547607220140657
 30
0.0
 11
10.386460488183719
 21
4.485107220140657
 31
0.0
  0
LINE
  5
135
100
AcDbEntity
100
AcDbLine
  8
Engrave
 62
256
370
-1
 48
1.0
  6
BYLAYER
 10
10.386460488183719
 20
4.547607220140657
 30
0.0
 11
10.323960488183719
 21
4.547607220140657
 31
0.0
  0
LINE
  5
136
100
AcDbEntity
100
AcDbLine
  8
Engrave
 62
256
370
-1
 48
1.0
  6
BYLAYER
 10
13.198960488183719
 20
3.922607220140657
 30
0.0
 11
13.196830852326787
 21
3.9387834104595645
 31
0.0
  0
LINE
  5
137
100
AcDbEntity
100
AcDbLine
  8
Engrave
 62
256
370
-1
 48
1.0
  6
BYLAYER
 10
13.196830852326787
 20
3.9387834104595645
 30
0.0
 11
13.190587075920249
 21
3.953857220140657
 31
0.0
  0
LINE
  5
138
100
AcDbEntity
100
AcDbLine
  8
Engrave
 62
256
370
-1
 48
1.0
  6
BYLAYER
 10
13.190587075920249
 20
3.953857220140657
 30
0.0
 11
13.180654662007878
 21
3.9668013939648161
 31
0.0
  0
LINE
  5
139
100
AcDbEntity
100
AcDbLine
  8
Engrave
 62
256
370
-1
 48
1.0
  6
BYLAYER
 10
13.180654662007878
 20
3.9668013939648161
 30
0.0
 11
13.167710488183719
 21
3.9767338078771846
 31
0.0
  0
LINE
  5
13A
100
AcDbEntity
100
AcDbLine
  8
Engrave
 62
256
370
-1
 48
1.0
  6
BYLAYER
 10
13.167710488183719
 20
3.9767338078771846
 30
0.0
 11
13.152636678502628
 21
3.9829775842837241
 31
0.0
  0
LINE
  5
13B
100
AcDbEntity
100
AcDbLine
  8
Engrave
 62
256
370
-1
 48
1.0
  6
BYLAYER
 10
13.152636678502628
 20
3.9829775842837241
 30
0.0
 11
13.136460488183719
 21
3.9848054913094533
 31
0.0
  0
LINE
  5
13C
100
AcDbEntity
100
AcDbLine
  8
Engrave
 62
256
370
-1
 48
1.0
  6
BYLAYER
 10
13.136460488183719
 20
3.9848054913094533
 30
0.0
 11
13.120284297864814
 21
3.9829775842837241
 31
0.0
  0
LINE
  5
13D
100
AcDbEntity
100
AcDbLine
  8
Engrave
 62
256
370
-1
 48
1.0
  6
BYLAYER
 10
13.120284297864814
 20
3.9829775842837241
 30
0.0
 11
13.105210488183719
 21
3.9767338078771846
 31
0.0
  0
LINE
  5
13E
100
AcDbEntity
100
AcDbLine
  8
Engrave
 62
256
370
-1
 48
1.0
  6
BYLAYER
 10
13.105210488183719
 20
3.9767338078771846
 30
0.0
 11
13.092266314359559
 21
3.9668013939648161
 31
0.0
  0
LINE
  5
13F
100
AcDbEntity
100
AcDbLine
  8
Engrave
 62
256
370
-1
 48
1.0
  6
BYLAYER
 10
13.092266314359559
 20
3.9668013939648161
 30
0.0
 11
13.082333900447193
 21
3.953857220140657
 31
0.0
  0
LINE
  5
140
100
AcDbEntity
100
AcDbLine
  8
Engrave
 62
256
370
-1
 48
1.0
  6
BYLAYER
 10
13.082333900447193
 20
3.953857220140657
 30
0.0
 11
13.076090124040654
 21
3.9387834104595645
 31
0.0
  0
LINE
  5
141
100
AcDbEntity
100
AcDbLine
  8
Engrave
 62
256
370
-1
 48
1.0
  6
BYLAYER
 10
13.076090124040654
 20
3.9387834104595645
 30
0.0
 11
13.073960488183719
 21
3.922607220140657
 31
0.0
  0
LINE
  5
142
100
AcDbEntity
100
AcDbLine
  8
Engrave
 62
256
370
-1
 48
1.0
  6
BYLAYER
 10
13.073960488183719
 20
3.922607220140657
 30
0.0
 11
13.076090124040654
 21
3.9064310298217495
 31
0.0
  0
LINE
  5
143
100
AcDbEntity
100
AcDbLine
  8
Engrave
 62
256
370
-1
 48
1.0
  6
BYLAYER
 10
13.076090124040654
 20
3.9064310298217495
 30
0.0
 11
13.082333900447193
 21
3.891357220140657
 31
0.0
  0
LINE
  5
144
100
AcDbEntity
100
AcDbLine
  8
Engrave
 62
256
370
-1
 48
1.0
  6
BYLAYER
 10
13.082333900447193
 20
3.891357220140657
 30
0.0
 11
13.092266314359559
 21
3.8784130463164979
 31
0.0
  0
LINE
  5
145
100
AcDbEntity
100
AcDbLine
  8
Engrave
 62
256
370
-1
 48
1.0
  6
BYLAYER
 10
13.092266314359559
 20
3.8784130463164979
 30
0.0
 11
13.105210488183719
 21
3.8684806324041294
 31
0.0
  0
LINE
  5
146
100
AcDbEntity
100
AcDbLine
  8
Engrave
 62
256
370
-1
 48
1.0
  6
BYLAYER
 10
13.105210488183719
 20
3.8684806324041294
 30
0.0
 11
13.120284297864814
 21
3.8622368559975899
 31
0.0
  0
LINE
  5
147
100
AcDbEntity
100
AcDbLine
  8
Engrave
 62
256
370
-1
 48
1.0
  6
BYLAYER
 10
13.120284297864814
 20
3.8622368559975899
 30
0.0
 11
13.136460488183719
 21
3.8604089489718607
 31
0.0
  0
LINE
  5
148
100
AcDbEntity
100
AcDbLine
  8
Engrave
 62
256
370
-1
 48
1.0
  6
BYLAYER
 10
13.136460488183719
 20
3.8604089489718607
 30
0.0
 11
13.152636678502628
 21
3.8622368559975899
 31
0.0
  0
LINE
  5
149
100
AcDbEntity
100
AcDbLine
  8
Engrave
 62
256
370
-1
 48
1.0
  6
BYLAYER
 10
13.152636678502628
 20
3.8622368559975899
 30
0.0
 11
13.167710488183719
 21
3.8684806324041294
 31
0.0
  0
LINE
  5
14A
100
AcDbEntity
100
AcDbLine
  8
Engrave
 62
256
370
-1
 48
1.0
  6
BYLAYER
 10
13.167710488183719
 20
3.8684806324041294
 30
0.0
 11
13.180654662007878
 21
3.8784130463164979
 31
0.0
  0
LINE
  5
14B
100
AcDbEntity
100
AcDbLine
  8
Engrave
 62
256
370
-1
 48
1.0
  6
BYLAYER
 10
13.180654662007878
 20
3.8784130463164979
 30
0.0
 11
13.190587075920249
 21
3.891357220140657
 31
0.0
  0
LINE
  5
14C
100
AcDbEntity
100
AcDbLine
  8
Engrave
 62
256
370
-1
 48
1.0
  6
BYLAYER
 10
13.190587075920249
 20
3.891357220140657
 30
0.0
 11
13.196830852326787
 21
3.9064310298217495
 31
0.0
  0
LINE
  5
14D
100
AcDbEntity
100
AcDbLine
  8
Engrave
 62
256
370
-1
 48
1.0
  6
BYLAYER
 10
13.196830852326787
 20
3.9064310298217495
 30
0.0
 11
13.198960488183719
 21
3.922607220140657
 31
0.0
  0
LINE
  5
14E
100
AcDbEntity
100
AcDbLine
  8
Engrave
 62
256
370
-1
 48
1.0
  6
BYLAYER
 10
13.073960488183719
 20
3.922607220140657
 30
0.0
 11
13.136460488183719
 21
3.922607220140657
 31
0.0
  0
LINE
  5
14F
100
AcDbEntity
100
AcDbLine
  8
Engrave
 62
256
370
-1
 48
1.0
  6
BYLAYER
 10
13.136460488183719
 20
3.922607220140657
 30
0.0
 11
13.136460488183719
 21
3.8604089489718607
 31
0.0
  0
LINE
  5
150
100
AcDbEntity
100
AcDbLine
  8
Engrave
 62
256
370
-1
 48
1.0
  6
BYLAYER
 10
13.136460488183719
 20
3.922607220140657
 30
0.0
 11
13.198960488183719
 21
3.922607220140657
 31
0.0
  0
LINE
  5
151
100
AcDbEntity
100
AcDbLine
  8
Engrave
 62
256
370
-1
 48
1.0
  6
BYLAYER
 10
2.539546393372393
 20
3.5330084176991581
 30
0.0
 11
2.5611860103078765
 21
3.5468914822152873
 31
0.0
  0
LINE
  5
152
100
AcDbEntity
100
AcDbLine
  8
Engrave
 62
256
370
-1
 48
1.0
  6
BYLAYER
 10
2.4575010304691665
 20
4.3204398693120618
 30
0.0
 11
2.4575010304691665
 21
4.359838054795933
 31
0.0
  0
LINE
  5
153
100
AcDbEntity
100
AcDbLine
  8
Engrave
 62
256
370
-1
 48
1.0
  6
BYLAYER
 10
2.8463709901465868
 20
4.359838054795933
 30
0.0
 11
2.9691119175659408
 21
4.3507952120539972
 31
0.0
  0
LINE
  5
154
100
AcDbEntity
100
AcDbLine
  8
Engrave
 62
256
370
-1
 48
1.0
  6
BYLAYER
 10
2.4575010304691665
 20
4.359838054795933
 30
0.0
 11
2.8463709901465868
 21
4.359838054795933
 31
0.0
  0
LINE
  5
155
100
AcDbEntity
100
AcDbLine
  8
Engrave
 62
256
370
-1
 48
1.0
  6
BYLAYER
 10
2.5699072804691663
 20
4.2584207160862553
 30
0.0
 11
2.5608644377272318
 21
4.2836142644733517
 31
0.0
  0
LINE
  5
156
100
AcDbEntity
100
AcDbLine
  8
Engrave
 62
256
370
-1
 48
1.0
  6
BYLAYER
 10
2.9691119175659408
 20
4.3507952120539972
 30
0.0
 11
3.0605161514369086
 21
4.3259287806023838
 31
0.0
  0
LINE
  5
157
100
AcDbEntity
100
AcDbLine
  8
Engrave
 62
256
370
-1
 48
1.0
  6
BYLAYER
 10
3.1641900425659411
 20
4.2435673894733519
 30
0.0
 11
3.185180969985296
 21
4.1922155749572232
 31
0.0
  0
LINE
  5
158
100
AcDbEntity
100
AcDbLine
  8
Engrave
 62
256
370
-1
 48
1.0
  6
BYLAYER
 10
2.5608644377272318
 20
4.2836142644733517
 30
0.0
 11
2.539546393372393
 21
4.2971868451185138
 31
0.0
  0
LINE
  5
159
100
AcDbEntity
100
AcDbLine
  8
Engrave
 62
256
370
-1
 48
1.0
  6
BYLAYER
 10
3.185180969985296
 20
4.1922155749572232
 30
0.0
 11
3.1913185707917466
 21
4.1389176918927069
 31
0.0
  0
LINE
  5
15A
100
AcDbEntity
100
AcDbLine
  8
Engrave
 62
256
370
-1
 48
1.0
  6
BYLAYER
 10
3.1913185707917466
 20
4.1389176918927069
 30
0.0
 11
3.1864741907514254
 21
4.0877294358443201
 31
0.0
  0
LINE
  5
15B
100
AcDbEntity
100
AcDbLine
  8
Engrave
 62
256
370
-1
 48
1.0
  6
BYLAYER
 10
3.1864741907514254
 20
4.0877294358443201
 30
0.0
 11
3.1719410506304579
 21
4.0439650709249655
 31
0.0
  0
LINE
  5
15C
100
AcDbEntity
100
AcDbLine
  8
Engrave
 62
256
370
-1
 48
1.0
  6
BYLAYER
 10
3.1719410506304579
 20
4.0439650709249655
 30
0.0
 11
3.1238160506304573
 21
3.9758138612475453
 31
0.0
  0
LINE
  5
15D
100
AcDbEntity
100
AcDbLine
  8
Engrave
 62
256
370
-1
 48
1.0
  6
BYLAYER
 10
3.1241431675659412
 20
4.289108720118513
 30
0.0
 11
3.1641900425659411
 21
4.2435673894733519
 31
0.0
  0
LINE
  5
15E
100
AcDbEntity
100
AcDbLine
  8
Engrave
 62
256
370
-1
 48
1.0
  6
BYLAYER
 10
3.2836986111143278
 20
3.5317110386669004
 30
0.0
 11
3.3670191756304564
 21
3.5091122483443198
 31
0.0
  0
LINE
  5
15F
100
AcDbEntity
100
AcDbLine
  8
Engrave
 62
256
370
-1
 48
1.0
  6
BYLAYER
 10
3.3670191756304564
 20
3.469702974150771
 30
0.0
 11
3.1603145385336826
 21
3.469702974150771
 31
0.0
  0
LINE
  5
160
100
AcDbEntity
100
AcDbLine
  8
Engrave
 62
256
370
-1
 48
1.0
  6
BYLAYER
 10
2.539546393372393
 20
4.2971868451185138
 30
0.0
 11
2.4575010304691665
 21
4.3204398693120618
 31
0.0
  0
LINE
  5
161
100
AcDbEntity
100
AcDbLine
  8
Engrave
 62
256
370
-1
 48
1.0
  6
BYLAYER
 10
3.0614808691788435
 20
3.9302725306023842
 30
0.0
 11
3.0001159498240049
 21
3.9037926918927068
 31
0.0
  0
LINE
  5
162
100
AcDbEntity
100
AcDbLine
  8
Engrave
 62
256
370
-1
 48
1.0
  6
BYLAYER
 10
2.5611860103078765
 20
3.5468914822152873
 30
0.0
 11
2.5699072804691663
 21
3.5711203128604487
 31
0.0
  0
LINE
  5
163
100
AcDbEntity
100
AcDbLine
  8
Engrave
 62
256
370
-1
 48
1.0
  6
BYLAYER
 10
2.5699072804691663
 20
3.5711203128604487
 30
0.0
 11
2.5699072804691663
 21
4.2584207160862553
 31
0.0
  0
LINE
  5
164
100
AcDbEntity
100
AcDbLine
  8
Engrave
 62
256
370
-1
 48
1.0
  6
BYLAYER
 10
3.0001159498240049
 20
3.9037926918927068
 30
0.0
 11
3.2158689740175546
 21
3.5846818047959323
 31
0.0
  0
LINE
  5
165
100
AcDbEntity
100
AcDbLine
  8
Engrave
 62
256
370
-1
 48
1.0
  6
BYLAYER
 10
3.2158689740175546
 20
3.5846818047959323
 30
0.0
 11
3.2291088933723926
 21
3.5685366435056101
 31
0.0
  0
LINE
  5
166
100
AcDbEntity
100
AcDbLine
  8
Engrave
 62
256
370
-1
 48
1.0
  6
BYLAYER
 10
3.2291088933723926
 20
3.5685366435056101
 30
0.0
 11
3.246551433694973
 21
3.5527130547959325
 31
0.0
  0
LINE
  5
167
100
AcDbEntity
100
AcDbLine
  8
Engrave
 62
256
370
-1
 48
1.0
  6
BYLAYER
 10
3.2656073812756179
 20
3.5394675910862552
 30
0.0
 11
3.2836986111143278
 21
3.5317110386669004
 31
0.0
  0
LINE
  5
168
100
AcDbEntity
100
AcDbLine
  8
Engrave
 62
256
370
-1
 48
1.0
  6
BYLAYER
 10
2.4575010304691665
 20
3.5091122483443198
 30
0.0
 11
2.539546393372393
 21
3.5330084176991581
 31
0.0
  0
LINE
  5
169
100
AcDbEntity
100
AcDbLine
  8
Engrave
 62
256
370
-1
 48
1.0
  6
BYLAYER
 10
3.0605161514369086
 20
4.3259287806023838
 30
0.0
 11
3.1241431675659412
 21
4.289108720118513
 31
0.0
  0
LINE
  5
16A
100
AcDbEntity
100
AcDbLine
  8
Engrave
 62
256
370
-1
 48
1.0
  6
BYLAYER
 10
3.3670191756304564
 20
3.5091122483443198
 30
0.0
 11
3.3670191756304564
 21
3.469702974150771
 31
0.0
  0
LINE
  5
16B
100
AcDbEntity
100
AcDbLine
  8
Engrave
 62
256
370
-1
 48
1.0
  6
BYLAYER
 10
3.1238160506304573
 20
3.9758138612475453
 30
0.0
 11
3.0614808691788435
 21
3.9302725306023842
 31
0.0
  0
LINE
  5
16C
100
AcDbEntity
100
AcDbLine
  8
Engrave
 62
256
370
-1
 48
1.0
  6
BYLAYER
 10
3.246551433694973
 20
3.5527130547959325
 30
0.0
 11
3.2656073812756179
 21
3.5394675910862552
 31
0.0
  0
LINE
  5
16D
100
AcDbEntity
100
AcDbLine
  8
Engrave
 62
256
370
-1
 48
1.0
  6
BYLAYER
 10
2.8767318772433597
 20
3.5091122483443198
 30
0.0
 11
2.8767318772433597
 21
3.469702974150771
 31
0.0
  0
LINE
  5
16E
100
AcDbEntity
100
AcDbLine
  8
Engrave
 62
256
370
-1
 48
1.0
  6
BYLAYER
 10
2.9561880264369083
 20
3.9816298894733522
 30
0.0
 11
2.9849355062756184
 21
4.0413814015701259
 31
0.0
  0
LINE
  5
16F
100
AcDbEntity
100
AcDbLine
  8
Engrave
 62
256
370
-1
 48
1.0
  6
BYLAYER
 10
2.9943054659530381
 20
4.1098541838281903
 30
0.0
 11
2.9834856574852959
 21
4.1913257060056104
 31
0.0
  0
LINE
  5
170
100
AcDbEntity
100
AcDbLine
  8
Engrave
 62
256
370
-1
 48
1.0
  6
BYLAYER
 10
2.8988649417594892
 20
4.2793395668927072
 30
0.0
 11
2.8289395385336831
 21
4.2900789822152881
 31
0.0
  0
LINE
  5
171
100
AcDbEntity
100
AcDbLine
  8
Engrave
 62
256
370
-1
 48
1.0
  6
BYLAYER
 10
2.8289395385336831
 20
4.2900789822152881
 30
0.0
 11
2.7533588933723929
 21
4.2900789822152881
 31
0.0
  0
LINE
  5
172
100
AcDbEntity
100
AcDbLine
  8
Engrave
 62
256
370
-1
 48
1.0
  6
BYLAYER
 10
2.8767318772433597
 20
3.469702974150771
 30
0.0
 11
2.4575010304691665
 21
3.469702974150771
 31
0.0
  0
LINE
  5
173
100
AcDbEntity
100
AcDbLine
  8
Engrave
 62
256
370
-1
 48
1.0
  6
BYLAYER
 10
3.0514677643401344
 20
3.5123390628604487
 30
0.0
 11
3.0253094982111022
 21
3.5504509580217389
 31
0.0
  0
LINE
  5
174
100
AcDbEntity
100
AcDbLine
  8
Engrave
 62
256
370
-1
 48
1.0
  6
BYLAYER
 10
2.7607883288562642
 20
3.546248337053997
 30
0.0
 11
2.781136111114328
 21
3.5330084176991581
 31
0.0
  0
LINE
  5
175
100
AcDbEntity
100
AcDbLine
  8
Engrave
 62
256
370
-1
 48
1.0
  6
BYLAYER
 10
2.7704743167594894
 20
3.9280159781830295
 30
0.0
 11
2.7946976030498116
 21
3.9260754539894811
 31
0.0
  0
LINE
  5
176
100
AcDbEntity
100
AcDbLine
  8
Engrave
 62
256
370
-1
 48
1.0
  6
BYLAYER
 10
3.669180969985296
 20
3.4589677170943198
 30
0.0
 11
3.5856885304691661
 21
3.4829484378604487
 31
0.0
  0
LINE
  5
177
100
AcDbEntity
100
AcDbLine
  8
Engrave
 62
256
370
-1
 48
1.0
  6
BYLAYER
 10
3.5856885304691661
 20
3.4829484378604487
 30
0.0
 11
3.5126957129288434
 21
3.5218670366507712
 31
0.0
  0
LINE
  5
178
100
AcDbEntity
100
AcDbLine
  8
Engrave
 62
256
370
-1
 48
1.0
  6
BYLAYER
 10
3.1118679659530382
 20
3.4739000507636746
 30
0.0
 11
3.0779531474046506
 21
3.487467087053997
 31
0.0
  0
LINE
  5
179
100
AcDbEntity
100
AcDbLine
  8
Engrave
 62
256
370
-1
 48
1.0
  6
BYLAYER
 10
3.5126957129288434
 20
3.5218670366507712
 30
0.0
 11
3.4513321796627152
 21
3.5746742443120616
 31
0.0
  0
LINE
  5
17A
100
AcDbEntity
100
AcDbLine
  8
Engrave
 62
256
370
-1
 48
1.0
  6
BYLAYER
 10
2.7533588933723929
 20
3.5711203128604487
 30
0.0
 11
2.7607883288562642
 21
3.546248337053997
 31
0.0
  0
LINE
  5
17B
100
AcDbEntity
100
AcDbLine
  8
Engrave
 62
256
370
-1
 48
1.0
  6
BYLAYER
 10
2.781136111114328
 20
3.5330084176991581
 30
0.0
 11
2.8767318772433597
 21
3.5091122483443198
 31
0.0
  0
LINE
  5
17C
100
AcDbEntity
100
AcDbLine
  8
Engrave
 62
256
370
-1
 48
1.0
  6
BYLAYER
 10
2.7533588933723929
 20
3.867621320924965
 30
0.0
 11
2.7533588933723929
 21
3.5711203128604487
 31
0.0
  0
LINE
  5
17D
100
AcDbEntity
100
AcDbLine
  8
Engrave
 62
256
370
-1
 48
1.0
  6
BYLAYER
 10
2.4575010304691665
 20
3.469702974150771
 30
0.0
 11
2.4575010304691665
 21
3.5091122483443198
 31
0.0
  0
LINE
  5
17E
100
AcDbEntity
100
AcDbLine
  8
Engrave
 62
256
370
-1
 48
1.0
  6
BYLAYER
 10
2.8198911514369089
 20
3.9244620467314166
 30
0.0
 11
2.8392742159530377
 21
3.9238189015701264
 31
0.0
  0
LINE
  5
17F
100
AcDbEntity
100
AcDbLine
  8
Engrave
 62
256
370
-1
 48
1.0
  6
BYLAYER
 10
3.1603145385336826
 20
3.469702974150771
 30
0.0
 11
3.1118679659530382
 21
3.4739000507636746
 31
0.0
  0
LINE
  5
180
100
AcDbEntity
100
AcDbLine
  8
Engrave
 62
256
370
-1
 48
1.0
  6
BYLAYER
 10
2.8386199820820699
 20
3.844357208021739
 30
0.0
 11
2.7533588933723929
 21
3.867621320924965
 31
0.0
  0
LINE
  5
181
100
AcDbEntity
100
AcDbLine
  8
Engrave
 62
256
370
-1
 48
1.0
  6
BYLAYER
 10
2.7533588933723929
 20
4.2900789822152881
 30
0.0
 11
2.7533588933723929
 21
3.9302725306023842
 31
0.0
  0
LINE
  5
182
100
AcDbEntity
100
AcDbLine
  8
Engrave
 62
256
370
-1
 48
1.0
  6
BYLAYER
 10
3.7620433691788437
 20
3.45097414350561
 30
0.0
 11
3.669180969985296
 21
3.4589677170943198
 31
0.0
  0
LINE
  5
183
100
AcDbEntity
100
AcDbLine
  8
Engrave
 62
256
370
-1
 48
1.0
  6
BYLAYER
 10
2.9077414538562638
 20
3.9396424902798035
 30
0.0
 11
2.9561880264369083
 21
3.9816298894733522
 31
0.0
  0
LINE
  5
184
100
AcDbEntity
100
AcDbLine
  8
Engrave
 62
256
370
-1
 48
1.0
  6
BYLAYER
 10
2.9849355062756184
 20
4.0413814015701259
 30
0.0
 11
2.9943054659530381
 21
4.1098541838281903
 31
0.0
  0
LINE
  5
185
100
AcDbEntity
100
AcDbLine
  8
Engrave
 62
256
370
-1
 48
1.0
  6
BYLAYER
 10
2.9510262320820693
 20
4.2471213209249647
 30
0.0
 11
2.8988649417594892
 21
4.2793395668927072
 31
0.0
  0
LINE
  5
186
100
AcDbEntity
100
AcDbLine
  8
Engrave
 62
256
370
-1
 48
1.0
  6
BYLAYER
 10
2.9834856574852959
 20
4.1913257060056104
 30
0.0
 11
2.9510262320820693
 21
4.2471213209249647
 31
0.0
  0
LINE
  5
187
100
AcDbEntity
100
AcDbLine
  8
Engrave
 62
256
370
-1
 48
1.0
  6
BYLAYER
 10
2.7533588933723929
 20
3.9302725306023842
 30
0.0
 11
2.7704743167594894
 21
3.9280159781830295
 31
0.0
  0
LINE
  5
188
100
AcDbEntity
100
AcDbLine
  8
Engrave
 62
256
370
-1
 48
1.0
  6
BYLAYER
 10
2.8392742159530377
 20
3.9238189015701264
 30
0.0
 11
2.876090118170779
 21
3.9277747987475453
 31
0.0
  0
LINE
  5
189
100
AcDbEntity
100
AcDbLine
  8
Engrave
 62
256
370
-1
 48
1.0
  6
BYLAYER
 10
2.876090118170779
 20
3.9277747987475453
 30
0.0
 11
2.9077414538562638
 21
3.9396424902798035
 31
0.0
  0
LINE
  5
18A
100
AcDbEntity
100
AcDbLine
  8
Engrave
 62
256
370
-1
 48
1.0
  6
BYLAYER
 10
3.0253094982111022
 20
3.5504509580217389
 30
0.0
 11
2.8386199820820699
 21
3.844357208021739
 31
0.0
  0
LINE
  5
18B
100
AcDbEntity
100
AcDbLine
  8
Engrave
 62
256
370
-1
 48
1.0
  6
BYLAYER
 10
2.7946976030498116
 20
3.9260754539894811
 30
0.0
 11
2.8198911514369089
 21
3.9244620467314166
 31
0.0
  0
LINE
  5
18C
100
AcDbEntity
100
AcDbLine
  8
Engrave
 62
256
370
-1
 48
1.0
  6
BYLAYER
 10
3.0779531474046506
 20
3.487467087053997
 30
0.0
 11
3.0514677643401344
 21
3.5123390628604487
 31
0.0
  0
LINE
  5
18D
100
AcDbEntity
100
AcDbLine
  8
Engrave
 62
256
370
-1
 48
1.0
  6
BYLAYER
 10
3.5703514588965866
 20
4.1528908521749646
 30
0.0
 11
3.5504874215981999
 21
4.090149546731416
 31
0.0
  0
LINE
  5
18E
100
AcDbEntity
100
AcDbLine
  8
Engrave
 62
256
370
-1
 48
1.0
  6
BYLAYER
 10
3.343214488130458
 20
3.8110120719330296
 30
0.0
 11
3.3357046595014253
 21
3.9128299902798038
 31
0.0
  0
LINE
  5
18F
100
AcDbEntity
100
AcDbLine
  8
Engrave
 62
256
370
-1
 48
1.0
  6
BYLAYER
 10
4.0100867159530384
 20
4.1104973289894815
 30
0.0
 11
3.9622943772433596
 21
4.2235467241507711
 31
0.0
  0
LINE
  5
190
100
AcDbEntity
100
AcDbLine
  8
Engrave
 62
256
370
-1
 48
1.0
  6
BYLAYER
 10
3.5504874215981999
 20
4.090149546731416
 30
0.0
 11
3.5381332129288441
 21
4.0169141636669004
 31
0.0
  0
LINE
  5
191
100
AcDbEntity
100
AcDbLine
  8
Engrave
 62
256
370
-1
 48
1.0
  6
BYLAYER
 10
3.5340151433723928
 20
3.9335104338281908
 30
0.0
 11
3.5386169578885212
 21
3.8469450356427068
 31
0.0
  0
LINE
  5
192
100
AcDbEntity
100
AcDbLine
  8
Engrave
 62
256
370
-1
 48
1.0
  6
BYLAYER
 10
3.5386169578885212
 20
3.8469450356427068
 30
0.0
 11
3.5524224014369081
 21
3.770722631408836
 31
0.0
  0
LINE
  5
193
100
AcDbEntity
100
AcDbLine
  8
Engrave
 62
256
370
-1
 48
1.0
  6
BYLAYER
 10
3.6301057431707799
 20
4.2456700860459327
 30
0.0
 11
3.5969990143401342
 21
4.204812349150771
 31
0.0
  0
LINE
  5
194
100
AcDbEntity
100
AcDbLine
  8
Engrave
 62
256
370
-1
 48
1.0
  6
BYLAYER
 10
3.4587560707917482
 20
4.2497049902798034
 30
0.0
 11
3.544671393372393
 21
4.3194696072152876
 31
0.0
  0
LINE
  5
195
100
AcDbEntity
100
AcDbLine
  8
Engrave
 62
256
370
-1
 48
1.0
  6
BYLAYER
 10
3.8531204861143276
 20
4.2865250507636743
 30
0.0
 11
3.7633296595014243
 21
4.2991162806023837
 31
0.0
  0
LINE
  5
196
100
AcDbEntity
100
AcDbLine
  8
Engrave
 62
256
370
-1
 48
1.0
  6
BYLAYER
 10
3.544671393372393
 20
4.3194696072152876
 30
0.0
 11
3.6473805667594887
 21
4.3633975306023842
 31
0.0
  0
LINE
  5
197
100
AcDbEntity
100
AcDbLine
  8
Engrave
 62
256
370
-1
 48
1.0
  6
BYLAYER
 10
3.8350348006304578
 20
4.3740537806023845
 30
0.0
 11
3.9154556675659413
 21
4.36242726850561
 31
0.0
  0
LINE
  5
198
100
AcDbEntity
100
AcDbLine
  8
Engrave
 62
256
370
-1
 48
1.0
  6
BYLAYER
 10
3.3928725022433599
 20
4.1566873491507712
 30
0.0
 11
3.4587560707917482
 21
4.2497049902798034
 31
0.0
  0
LINE
  5
199
100
AcDbEntity
100
AcDbLine
  8
Engrave
 62
256
370
-1
 48
1.0
  6
BYLAYER
 10
3.9506567764369094
 20
4.2403405749572229
 30
0.0
 11
3.9358034498240051
 21
4.2513239418927071
 31
0.0
  0
LINE
  5
19A
100
AcDbEntity
100
AcDbLine
  8
Engrave
 62
256
370
-1
 48
1.0
  6
BYLAYER
 10
3.9923281474046504
 20
4.3462765628604485
 30
0.0
 11
4.0533659498240056
 21
4.3281908773765778
 31
0.0
  0
LINE
  5
19B
100
AcDbEntity
100
AcDbLine
  8
Engrave
 62
256
370
-1
 48
1.0
  6
BYLAYER
 10
3.4021606826869095
 20
3.6408849297959325
 30
0.0
 11
3.3657439740175543
 21
3.7200139620539971
 31
0.0
  0
LINE
  5
19C
100
AcDbEntity
100
AcDbLine
  8
Engrave
 62
256
370
-1
 48
1.0
  6
BYLAYER
 10
3.3657439740175543
 20
3.7200139620539971
 30
0.0
 11
3.343214488130458
 21
3.8110120719330296
 31
0.0
  0
LINE
  5
19D
100
AcDbEntity
100
AcDbLine
  8
Engrave
 62
256
370
-1
 48
1.0
  6
BYLAYER
 10
3.5381332129288441
 20
4.0169141636669004
 30
0.0
 11
3.5340151433723928
 21
3.9335104338281908
 31
0.0
  0
LINE
  5
19E
100
AcDbEntity
100
AcDbLine
  8
Engrave
 62
256
370
-1
 48
1.0
  6
BYLAYER
 10
3.5524224014369081
 20
3.770722631408836
 30
0.0
 11
3.5754328601062642
 21
3.7052410285862551
 31
0.0
  0
LINE
  5
19F
100
AcDbEntity
100
AcDbLine
  8
Engrave
 62
256
370
-1
 48
1.0
  6
BYLAYER
 10
3.3505635304691661
 20
4.0433219257636743
 30
0.0
 11
3.3928725022433599
 21
4.1566873491507712
 31
0.0
  0
LINE
  5
1A0
100
AcDbEntity
100
AcDbLine
  8
Engrave
 62
256
370
-1
 48
1.0
  6
BYLAYER
 10
3.9154556675659413
 20
4.36242726850561
 30
0.0
 11
3.9923281474046504
 21
4.3462765628604485
 31
0.0
  0
LINE
  5
1A1
100
AcDbEntity
100
AcDbLine
  8
Engrave
 62
256
370
-1
 48
1.0
  6
BYLAYER
 10
3.7633296595014243
 20
4.3785779741507715
 30
0.0
 11
3.8350348006304578
 21
4.3740537806023845
 31
0.0
  0
LINE
  5
1A2
100
AcDbEntity
100
AcDbLine
  8
Engrave
 62
256
370
-1
 48
1.0
  6
BYLAYER
 10
3.4513321796627152
 20
3.5746742443120616
 30
0.0
 11
3.4021606826869095
 21
3.6408849297959325
 31
0.0
  0
LINE
  5
1A3
100
AcDbEntity
100
AcDbLine
  8
Engrave
 62
256
370
-1
 48
1.0
  6
BYLAYER
 10
4.0533659498240056
 20
4.1104973289894815
 30
0.0
 11
4.0100867159530384
 21
4.1104973289894815
 31
0.0
  0
LINE
  5
1A4
100
AcDbEntity
100
AcDbLine
  8
Engrave
 62
256
370
-1
 48
1.0
  6
BYLAYER
 10
3.9622943772433596
 20
4.2235467241507711
 30
0.0
 11
3.9506567764369094
 21
4.2403405749572229
 31
0.0
  0
LINE
  5
1A5
100
AcDbEntity
100
AcDbLine
  8
Engrave
 62
256
370
-1
 48
1.0
  6
BYLAYER
 10
4.0533659498240056
 20
4.3281908773765778
 30
0.0
 11
4.0533659498240056
 21
4.1104973289894815
 31
0.0
  0
LINE
  5
1A6
100
AcDbEntity
100
AcDbLine
  8
Engrave
 62
256
370
-1
 48
1.0
  6
BYLAYER
 10
3.3357046595014253
 20
3.9128299902798038
 30
0.0
 11
3.3505635304691661
 21
4.0433219257636743
 31
0.0
  0
LINE
  5
1A7
100
AcDbEntity
100
AcDbLine
  8
Engrave
 62
256
370
-1
 48
1.0
  6
BYLAYER
 10
3.5969990143401342
 20
4.204812349150771
 30
0.0
 11
3.5703514588965866
 21
4.1528908521749646
 31
0.0
  0
LINE
  5
1A8
100
AcDbEntity
100
AcDbLine
  8
Engrave
 62
256
370
-1
 48
1.0
  6
BYLAYER
 10
3.7139973762352958
 20
4.293142238263675
 30
0.0
 11
3.6693473006304571
 21
4.2752201112475454
 31
0.0
  0
LINE
  5
1A9
100
AcDbEntity
100
AcDbLine
  8
Engrave
 62
256
370
-1
 48
1.0
  6
BYLAYER
 10
3.9358034498240051
 20
4.2513239418927071
 30
0.0
 11
3.8531204861143276
 21
4.2865250507636743
 31
0.0
  0
LINE
  5
1AA
100
AcDbEntity
100
AcDbLine
  8
Engrave
 62
256
370
-1
 48
1.0
  6
BYLAYER
 10
3.6473805667594887
 20
4.3633975306023842
 30
0.0
 11
3.7633296595014243
 21
4.3785779741507715
 31
0.0
  0
LINE
  5
1AB
100
AcDbEntity
100
AcDbLine
  8
Engrave
 62
256
370
-1
 48
1.0
  6
BYLAYER
 10
3.7633296595014243
 20
4.2991162806023837
 30
0.0
 11
3.7139973762352958
 21
4.293142238263675
 31
0.0
  0
LINE
  5
1AC
100
AcDbEntity
100
AcDbLine
  8
Engrave
 62
256
370
-1
 48
1.0
  6
BYLAYER
 10
3.6693473006304571
 20
4.2752201112475454
 30
0.0
 11
3.6301057431707799
 21
4.2456700860459327
 31
0.0
  0
LINE
  5
1AD
100
AcDbEntity
100
AcDbLine
  8
Engrave
 62
256
370
-1
 48
1.0
  6
BYLAYER
 10
3.7579197552675541
 20
3.5580356354410938
 30
0.0
 11
3.8253488127272308
 21
3.5517372483443199
 31
0.0
  0
LINE
  5
1AE
100
AcDbEntity
100
AcDbLine
  8
Engrave
 62
256
370
-1
 48
1.0
  6
BYLAYER
 10
3.5754328601062642
 20
3.7052410285862551
 30
0.0
 11
3.6076497199852962
 21
3.650898034634642
 31
0.0
  0
LINE
  5
1AF
100
AcDbEntity
100
AcDbLine
  8
Engrave
 62
256
370
-1
 48
1.0
  6
BYLAYER
 10
3.6076497199852962
 20
3.650898034634642
 30
0.0
 11
3.6489108086949726
 21
3.6080193804007714
 31
0.0
  0
LINE
  5
1B0
100
AcDbEntity
100
AcDbLine
  8
Engrave
 62
256
370
-1
 48
1.0
  6
BYLAYER
 10
4.5562389336949742
 20
3.4496767644733519
 30
0.0
 11
4.4580525677675542
 21
3.4583162554007711
 31
0.0
  0
LINE
  5
1B1
100
AcDbEntity
100
AcDbLine
  8
Engrave
 62
256
370
-1
 48
1.0
  6
BYLAYER
 10
4.3714954861143287
 20
3.4842347281830293
 30
0.0
 11
4.2971304407514257
 21
3.525576210037868
 31
0.0
  0
LINE
  5
1B2
100
AcDbEntity
100
AcDbLine
  8
Engrave
 62
256
370
-1
 48
1.0
  6
BYLAYER
 10
3.9723019377272322
 20
3.5888844257636747
 30
0.0
 11
4.0220458893401343
 21
3.6237639620539972
 31
0.0
  0
LINE
  5
1B3
100
AcDbEntity
100
AcDbLine
  8
Engrave
 62
256
370
-1
 48
1.0
  6
BYLAYER
 10
4.2355201836949732
 20
3.5804847281830292
 30
0.0
 11
4.1869904457917482
 21
3.6481508068120614
 31
0.0
  0
LINE
  5
1B4
100
AcDbEntity
100
AcDbLine
  8
Engrave
 62
256
370
-1
 48
1.0
  6
BYLAYER
 10
4.0220458893401343
 20
3.6237639620539972
 30
0.0
 11
4.0624143369207797
 21
3.6596193047959327
 31
0.0
  0
LINE
  5
1B5
100
AcDbEntity
100
AcDbLine
  8
Engrave
 62
256
370
-1
 48
1.0
  6
BYLAYER
 10
4.4580525677675542
 20
3.4583162554007711
 30
0.0
 11
4.3714954861143287
 21
3.4842347281830293
 31
0.0
  0
LINE
  5
1B6
100
AcDbEntity
100
AcDbLine
  8
Engrave
 62
256
370
-1
 48
1.0
  6
BYLAYER
 10
4.2971304407514257
 20
3.525576210037868
 30
0.0
 11
4.2355201836949732
 21
3.5804847281830292
 31
0.0
  0
LINE
  5
1B7
100
AcDbEntity
100
AcDbLine
  8
Engrave
 62
256
370
-1
 48
1.0
  6
BYLAYER
 10
3.9083478046627156
 20
3.5623990426991585
 30
0.0
 11
3.9723019377272322
 21
3.5888844257636747
 31
0.0
  0
LINE
  5
1B8
100
AcDbEntity
100
AcDbLine
  8
Engrave
 62
256
370
-1
 48
1.0
  6
BYLAYER
 10
3.6489108086949726
 20
3.6080193804007714
 30
0.0
 11
3.6990539538562639
 21
3.5769307967314163
 31
0.0
  0
LINE
  5
1B9
100
AcDbEntity
100
AcDbLine
  8
Engrave
 62
256
370
-1
 48
1.0
  6
BYLAYER
 10
4.0624143369207797
 20
3.6596193047959327
 30
0.0
 11
4.0901915546627166
 21
3.6596193047959327
 31
0.0
  0
LINE
  5
1BA
100
AcDbEntity
100
AcDbLine
  8
Engrave
 62
256
370
-1
 48
1.0
  6
BYLAYER
 10
3.9487217965981993
 20
3.4978017644733517
 30
0.0
 11
3.8579662522433611
 21
3.464214062860449
 31
0.0
  0
LINE
  5
1BB
100
AcDbEntity
100
AcDbLine
  8
Engrave
 62
256
370
-1
 48
1.0
  6
BYLAYER
 10
3.8579662522433611
 20
3.464214062860449
 30
0.0
 11
3.7620433691788437
 21
3.45097414350561
 31
0.0
  0
LINE
  5
1BC
100
AcDbEntity
100
AcDbLine
  8
Engrave
 62
256
370
-1
 48
1.0
  6
BYLAYER
 10
3.6990539538562639
 20
3.5769307967314163
 30
0.0
 11
3.7579197552675541
 21
3.5580356354410938
 31
0.0
  0
LINE
  5
1BD
100
AcDbEntity
100
AcDbLine
  8
Engrave
 62
256
370
-1
 48
1.0
  6
BYLAYER
 10
4.0901915546627166
 20
3.6596193047959327
 30
0.0
 11
4.0901915546627166
 21
3.5892059983443194
 31
0.0
  0
LINE
  5
1BE
100
AcDbEntity
100
AcDbLine
  8
Engrave
 62
256
370
-1
 48
1.0
  6
BYLAYER
 10
4.0901915546627166
 20
3.5892059983443194
 30
0.0
 11
4.0281779457917484
 21
3.542372833021739
 31
0.0
  0
LINE
  5
1BF
100
AcDbEntity
100
AcDbLine
  8
Engrave
 62
256
370
-1
 48
1.0
  6
BYLAYER
 10
4.0281779457917484
 20
3.542372833021739
 30
0.0
 11
3.9487217965981993
 21
3.4978017644733517
 31
0.0
  0
LINE
  5
1C0
100
AcDbEntity
100
AcDbLine
  8
Engrave
 62
256
370
-1
 48
1.0
  6
BYLAYER
 10
3.8253488127272308
 20
3.5517372483443199
 30
0.0
 11
3.9083478046627156
 21
3.5623990426991585
 31
0.0
  0
LINE
  5
1C1
100
AcDbEntity
100
AcDbLine
  8
Engrave
 62
256
370
-1
 48
1.0
  6
BYLAYER
 10
4.8049365143401337
 20
3.520733216086255
 30
0.0
 11
4.7530981826869088
 21
3.4912608118523845
 31
0.0
  0
LINE
  5
1C2
100
AcDbEntity
100
AcDbLine
  8
Engrave
 62
256
370
-1
 48
1.0
  6
BYLAYER
 10
4.6289101786546514
 20
3.4544407513685131
 30
0.0
 11
4.5562389336949742
 21
3.4496767644733519
 31
0.0
  0
LINE
  5
1C3
100
AcDbEntity
100
AcDbLine
  8
Engrave
 62
256
370
-1
 48
1.0
  6
BYLAYER
 10
4.2381038530498127
 20
4.2445376515701261
 30
0.0
 11
4.3001978550659423
 21
4.300818397537868
 31
0.0
  0
LINE
  5
1C4
100
AcDbEntity
100
AcDbLine
  8
Engrave
 62
256
370
-1
 48
1.0
  6
BYLAYER
 10
4.1869904457917482
 20
3.6481508068120614
 30
0.0
 11
4.1518669578885223
 21
3.7277649701185132
 31
0.0
  0
LINE
  5
1C5
100
AcDbEntity
100
AcDbLine
  8
Engrave
 62
256
370
-1
 48
1.0
  6
BYLAYER
 10
4.5575363127272315
 20
4.3798642644733521
 30
0.0
 11
4.6612088177675535
 21
4.3705788562072225
 31
0.0
  0
LINE
  5
1C6
100
AcDbEntity
100
AcDbLine
  8
Engrave
 62
256
370
-1
 48
1.0
  6
BYLAYER
 10
4.1518669578885223
 20
3.7277649701185132
 30
0.0
 11
4.1305516857111026
 21
3.8174712453201263
 31
0.0
  0
LINE
  5
1C7
100
AcDbEntity
100
AcDbLine
  8
Engrave
 62
256
370
-1
 48
1.0
  6
BYLAYER
 10
4.5665736111143289
 20
3.5187926918927066
 30
0.0
 11
4.6198701080901348
 21
3.5260599549975455
 31
0.0
  0
LINE
  5
1C8
100
AcDbEntity
100
AcDbLine
  8
Engrave
 62
256
370
-1
 48
1.0
  6
BYLAYER
 10
4.6198701080901348
 20
3.5260599549975455
 30
0.0
 11
4.6660559699852957
 21
3.5478617443120615
 31
0.0
  0
LINE
  5
1C9
100
AcDbEntity
100
AcDbLine
  8
Engrave
 62
256
370
-1
 48
1.0
  6
BYLAYER
 10
4.7050535758320713
 20
3.5823407009652874
 30
0.0
 11
4.7367853046627157
 21
3.6276394660862552
 31
0.0
  0
LINE
  5
1CA
100
AcDbEntity
100
AcDbLine
  8
Engrave
 62
256
370
-1
 48
1.0
  6
BYLAYER
 10
4.1528372199852956
 20
4.096935837053997
 30
0.0
 11
4.1888491907514247
 21
4.1761452624572231
 31
0.0
  0
LINE
  5
1CB
100
AcDbEntity
100
AcDbLine
  8
Engrave
 62
256
370
-1
 48
1.0
  6
BYLAYER
 10
4.1234465949852961
 20
3.9154136596346425
 30
0.0
 11
4.1307942512352955
 21
4.0092463209249649
 31
0.0
  0
LINE
  5
1CC
100
AcDbEntity
100
AcDbLine
  8
Engrave
 62
256
370
-1
 48
1.0
  6
BYLAYER
 10
4.6660559699852957
 20
3.5478617443120615
 30
0.0
 11
4.7050535758320713
 21
3.5823407009652874
 31
0.0
  0
LINE
  5
1CD
100
AcDbEntity
100
AcDbLine
  8
Engrave
 62
256
370
-1
 48
1.0
  6
BYLAYER
 10
4.9793452845014246
 20
3.8030184983443198
 30
0.0
 11
4.945757582888521
 21
3.6951419862475454
 31
0.0
  0
LINE
  5
1CE
100
AcDbEntity
100
AcDbLine
  8
Engrave
 62
256
370
-1
 48
1.0
  6
BYLAYER
 10
4.8244013580901344
 20
4.299040045723352
 30
0.0
 11
4.8847197804691662
 21
4.242275554795933
 31
0.0
  0
LINE
  5
1CF
100
AcDbEntity
100
AcDbLine
  8
Engrave
 62
256
370
-1
 48
1.0
  6
BYLAYER
 10
4.9312286010336832
 20
4.1737223793927072
 30
0.0
 11
4.9641703853078765
 21
4.0946737402798039
 31
0.0
  0
LINE
  5
1D0
100
AcDbEntity
100
AcDbLine
  8
Engrave
 62
256
370
-1
 48
1.0
  6
BYLAYER
 10
4.7530981826869088
 20
3.4912608118523845
 30
0.0
 11
4.694476332888522
 21
3.4687327120539968
 31
0.0
  0
LINE
  5
1D1
100
AcDbEntity
100
AcDbLine
  8
Engrave
 62
256
370
-1
 48
1.0
  6
BYLAYER
 10
4.9903286514369087
 20
3.9154136596346425
 30
0.0
 11
4.9793452845014246
 21
3.8030184983443198
 31
0.0
  0
LINE
  5
1D2
100
AcDbEntity
100
AcDbLine
  8
Engrave
 62
256
370
-1
 48
1.0
  6
BYLAYER
 10
4.6612088177675535
 20
4.3705788562072225
 30
0.0
 11
4.7500307683723939
 21
4.3427226314088356
 31
0.0
  0
LINE
  5
1D3
100
AcDbEntity
100
AcDbLine
  8
Engrave
 62
256
370
-1
 48
1.0
  6
BYLAYER
 10
4.8882681675659407
 20
3.5985704136669003
 30
0.0
 11
4.849992713936909
 21
3.5566647937072227
 31
0.0
  0
LINE
  5
1D4
100
AcDbEntity
100
AcDbLine
  8
Engrave
 62
256
370
-1
 48
1.0
  6
BYLAYER
 10
4.694476332888522
 20
3.4687327120539968
 30
0.0
 11
4.6289101786546514
 21
3.4544407513685131
 31
0.0
  0
LINE
  5
1D5
100
AcDbEntity
100
AcDbLine
  8
Engrave
 62
256
370
-1
 48
1.0
  6
BYLAYER
 10
4.8847197804691662
 20
4.242275554795933
 30
0.0
 11
4.9312286010336832
 21
4.1737223793927072
 31
0.0
  0
LINE
  5
1D6
100
AcDbEntity
100
AcDbLine
  8
Engrave
 62
256
370
-1
 48
1.0
  6
BYLAYER
 10
4.1307942512352955
 20
4.0092463209249649
 30
0.0
 11
4.1528372199852956
 21
4.096935837053997
 31
0.0
  0
LINE
  5
1D7
100
AcDbEntity
100
AcDbLine
  8
Engrave
 62
256
370
-1
 48
1.0
  6
BYLAYER
 10
4.1888491907514247
 20
4.1761452624572231
 30
0.0
 11
4.2381038530498127
 21
4.2445376515701261
 31
0.0
  0
LINE
  5
1D8
100
AcDbEntity
100
AcDbLine
  8
Engrave
 62
256
370
-1
 48
1.0
  6
BYLAYER
 10
4.9641703853078765
 20
4.0946737402798039
 30
0.0
 11
4.9837890849046493
 21
4.0077105346346418
 31
0.0
  0
LINE
  5
1D9
100
AcDbEntity
100
AcDbLine
  8
Engrave
 62
256
370
-1
 48
1.0
  6
BYLAYER
 10
4.1305516857111026
 20
3.8174712453201263
 30
0.0
 11
4.1234465949852961
 21
3.9154136596346425
 31
0.0
  0
LINE
  5
1DA
100
AcDbEntity
100
AcDbLine
  8
Engrave
 62
256
370
-1
 48
1.0
  6
BYLAYER
 10
4.374727844985296
 20
4.3436928935056098
 30
0.0
 11
4.4608039538562636
 21
4.3708214217314163
 31
0.0
  0
LINE
  5
1DB
100
AcDbEntity
100
AcDbLine
  8
Engrave
 62
256
370
-1
 48
1.0
  6
BYLAYER
 10
4.3001978550659423
 20
4.300818397537868
 30
0.0
 11
4.374727844985296
 21
4.3436928935056098
 31
0.0
  0
LINE
  5
1DC
100
AcDbEntity
100
AcDbLine
  8
Engrave
 62
256
370
-1
 48
1.0
  6
BYLAYER
 10
4.4608039538562636
 20
4.3708214217314163
 30
0.0
 11
4.5575363127272315
 21
4.3798642644733521
 31
0.0
  0
LINE
  5
1DD
100
AcDbEntity
100
AcDbLine
  8
Engrave
 62
256
370
-1
 48
1.0
  6
BYLAYER
 10
4.7500307683723939
 20
4.3427226314088356
 30
0.0
 11
4.8244013580901344
 21
4.299040045723352
 31
0.0
  0
LINE
  5
1DE
100
AcDbEntity
100
AcDbLine
  8
Engrave
 62
256
370
-1
 48
1.0
  6
BYLAYER
 10
4.9837890849046493
 20
4.0077105346346418
 30
0.0
 11
4.9903286514369087
 21
3.9154136596346425
 31
0.0
  0
LINE
  5
1DF
100
AcDbEntity
100
AcDbLine
  8
Engrave
 62
256
370
-1
 48
1.0
  6
BYLAYER
 10
4.945757582888521
 20
3.6951419862475454
 30
0.0
 11
4.8882681675659407
 21
3.5985704136669003
 31
0.0
  0
LINE
  5
1E0
100
AcDbEntity
100
AcDbLine
  8
Engrave
 62
256
370
-1
 48
1.0
  6
BYLAYER
 10
4.849992713936909
 20
3.5566647937072227
 30
0.0
 11
4.8049365143401337
 21
3.520733216086255
 31
0.0
  0
LINE
  5
1E1
100
AcDbEntity
100
AcDbLine
  8
Engrave
 62
256
370
-1
 48
1.0
  6
BYLAYER
 10
4.3340322804691667
 20
4.0772367443120618
 30
0.0
 11
4.3217570788562636
 21
3.9367372483443197
 31
0.0
  0
LINE
  5
1E2
100
AcDbEntity
100
AcDbLine
  8
Engrave
 62
256
370
-1
 48
1.0
  6
BYLAYER
 10
4.3217570788562636
 20
3.9367372483443197
 30
0.0
 11
4.3359672603078767
 21
3.7703955144733521
 31
0.0
  0
LINE
  5
1E3
100
AcDbEntity
100
AcDbLine
  8
Engrave
 62
256
370
-1
 48
1.0
  6
BYLAYER
 10
4.4138100022433608
 20
3.5881539570136742
 30
0.0
 11
4.4561189740175546
 21
3.5504454136669001
 31
0.0
  0
LINE
  5
1E4
100
AcDbEntity
100
AcDbLine
  8
Engrave
 62
256
370
-1
 48
1.0
  6
BYLAYER
 10
4.354054331880457
 20
3.6990174902798034
 30
0.0
 11
4.3798951836949733
 21
3.6379741435056099
 31
0.0
  0
LINE
  5
1E5
100
AcDbEntity
100
AcDbLine
  8
Engrave
 62
256
370
-1
 48
1.0
  6
BYLAYER
 10
4.7332369175659412
 20
4.1944776717314163
 30
0.0
 11
4.6989201332917485
 21
4.2433275961265782
 31
0.0
  0
LINE
  5
1E6
100
AcDbEntity
100
AcDbLine
  8
Engrave
 62
256
370
-1
 48
1.0
  6
BYLAYER
 10
4.6566915546627161
 20
4.2800658773765772
 30
0.0
 11
4.6060632784530391
 21
4.3030777221346419
 31
0.0
  0
LINE
  5
1E7
100
AcDbEntity
100
AcDbLine
  8
Engrave
 62
256
370
-1
 48
1.0
  6
BYLAYER
 10
4.778772703856264
 20
3.7471424902798036
 30
0.0
 11
4.7926613127272306
 21
3.8953985386669001
 31
0.0
  0
LINE
  5
1E8
100
AcDbEntity
100
AcDbLine
  8
Engrave
 62
256
370
-1
 48
1.0
  6
BYLAYER
 10
4.7781295586949746
 20
4.0633481354410943
 30
0.0
 11
4.7596405213965873
 21
4.134242414674965
 31
0.0
  0
LINE
  5
1E9
100
AcDbEntity
100
AcDbLine
  8
Engrave
 62
256
370
-1
 48
1.0
  6
BYLAYER
 10
4.6060632784530391
 20
4.3030777221346419
 30
0.0
 11
4.5465474014369089
 21
4.3107483370539974
 31
0.0
  0
LINE
  5
1EA
100
AcDbEntity
100
AcDbLine
  8
Engrave
 62
256
370
-1
 48
1.0
  6
BYLAYER
 10
4.490355365146586
 20
4.3029973289894805
 30
0.0
 11
4.4432006272433604
 21
4.2797443047959325
 31
0.0
  0
LINE
  5
1EB
100
AcDbEntity
100
AcDbLine
  8
Engrave
 62
256
370
-1
 48
1.0
  6
BYLAYER
 10
4.7613315496223922
 20
3.6828695568120615
 30
0.0
 11
4.778772703856264
 21
3.7471424902798036
 31
0.0
  0
LINE
  5
1EC
100
AcDbEntity
100
AcDbLine
  8
Engrave
 62
256
370
-1
 48
1.0
  6
BYLAYER
 10
4.5465474014369089
 20
4.3107483370539974
 30
0.0
 11
4.490355365146586
 21
4.3029973289894805
 31
0.0
  0
LINE
  5
1ED
100
AcDbEntity
100
AcDbLine
  8
Engrave
 62
256
370
-1
 48
1.0
  6
BYLAYER
 10
4.4432006272433604
 20
4.2797443047959325
 30
0.0
 11
4.4044414286546516
 21
4.2434911545943201
 31
0.0
  0
LINE
  5
1EE
100
AcDbEntity
100
AcDbLine
  8
Engrave
 62
256
370
-1
 48
1.0
  6
BYLAYER
 10
4.4044414286546516
 20
4.2434911545943201
 30
0.0
 11
4.3734360103078771
 21
4.1967397685056103
 31
0.0
  0
LINE
  5
1EF
100
AcDbEntity
100
AcDbLine
  8
Engrave
 62
256
370
-1
 48
1.0
  6
BYLAYER
 10
4.5069856574852967
 20
3.526705872336255
 30
0.0
 11
4.5665736111143289
 21
3.5187926918927066
 31
0.0
  0
LINE
  5
1F0
100
AcDbEntity
100
AcDbLine
  8
Engrave
 62
256
370
-1
 48
1.0
  6
BYLAYER
 10
4.3500208137352967
 20
4.1408637604410945
 30
0.0
 11
4.3340322804691667
 21
4.0772367443120618
 31
0.0
  0
LINE
  5
1F1
100
AcDbEntity
100
AcDbLine
  8
Engrave
 62
256
370
-1
 48
1.0
  6
BYLAYER
 10
4.7367853046627157
 20
3.6276394660862552
 30
0.0
 11
4.7613315496223922
 21
3.6828695568120615
 31
0.0
  0
LINE
  5
1F2
100
AcDbEntity
100
AcDbLine
  8
Engrave
 62
256
370
-1
 48
1.0
  6
BYLAYER
 10
4.3734360103078771
 20
4.1967397685056103
 30
0.0
 11
4.3500208137352967
 21
4.1408637604410945
 31
0.0
  0
LINE
  5
1F3
100
AcDbEntity
100
AcDbLine
  8
Engrave
 62
256
370
-1
 48
1.0
  6
BYLAYER
 10
4.7596405213965873
 20
4.134242414674965
 30
0.0
 11
4.7332369175659412
 21
4.1944776717314163
 31
0.0
  0
LINE
  5
1F4
100
AcDbEntity
100
AcDbLine
  8
Engrave
 62
256
370
-1
 48
1.0
  6
BYLAYER
 10
4.3798951836949733
 20
3.6379741435056099
 30
0.0
 11
4.4138100022433608
 21
3.5881539570136742
 31
0.0
  0
LINE
  5
1F5
100
AcDbEntity
100
AcDbLine
  8
Engrave
 62
256
370
-1
 48
1.0
  6
BYLAYER
 10
4.7926613127272306
 20
3.8953985386669001
 30
0.0
 11
4.7781295586949746
 21
4.0633481354410943
 31
0.0
  0
LINE
  5
1F6
100
AcDbEntity
100
AcDbLine
  8
Engrave
 62
256
370
-1
 48
1.0
  6
BYLAYER
 10
4.4561189740175546
 20
3.5504454136669001
 30
0.0
 11
4.5069856574852967
 21
3.526705872336255
 31
0.0
  0
LINE
  5
1F7
100
AcDbEntity
100
AcDbLine
  8
Engrave
 62
256
370
-1
 48
1.0
  6
BYLAYER
 10
4.3359672603078767
 20
3.7703955144733521
 30
0.0
 11
4.354054331880457
 21
3.6990174902798034
 31
0.0
  0
LINE
  5
1F8
100
AcDbEntity
100
AcDbLine
  8
Engrave
 62
256
370
-1
 48
1.0
  6
BYLAYER
 10
4.6989201332917485
 20
4.2433275961265782
 30
0.0
 11
4.6566915546627161
 21
4.2800658773765772
 31
0.0
  0
HATCH
  5
1F9
  8
Engrave
 62
256
370
-1
 48
1.0
  6
BYLAYER
100
AcDbEntity
100
AcDbHatch
 10
0.0
 20
0.0
 30
0.0
210
0.0
220
0.0
230
1.0
  2
SOLID
 70
1
 71
0
 91
5
 92
1
 93
41
 72
1
 10
2.539546393372393
 20
3.5330084176991581
 11
2.5611860103078765
 21
3.5468914822152873
 72
1
 10
2.5611860103078765
 20
3.5468914822152873
 11
2.5699072804691663
 21
3.5711203128604487
 72
1
 10
2.5699072804691663
 20
3.5711203128604487
 11
2.5699072804691663
 21
4.2584207160862553
 72
1
 10
2.5699072804691663
 20
4.2584207160862553
 11
2.5608644377272318
 21
4.2836142644733517
 72
1
 10
2.5608644377272318
 20
4.2836142644733517
 11
2.539546393372393
 21
4.2971868451185138
 72
1
 10
2.539546393372393
 20
4.2971868451185138
 11
2.4575010304691665
 21
4.3204398693120618
 72
1
 10
2.4575010304691665
 20
4.3204398693120618
 11
2.4575010304691665
 21
4.359838054795933
 72
1
 10
2.4575010304691665
 20
4.359838054795933
 11
2.8463709901465868
 21
4.359838054795933
 72
1
 10
2.8463709901465868
 20
4.359838054795933
 11
2.9691119175659408
 21
4.3507952120539972
 72
1
 10
2.9691119175659408
 20
4.3507952120539972
 11
3.0605161514369086
 21
4.3259287806023838
 72
1
 10
3.0605161514369086
 20
4.3259287806023838
 11
3.1241431675659412
 21
4.289108720118513
 72
1
 10
3.1241431675659412
 20
4.289108720118513
 11
3.1641900425659411
 21
4.2435673894733519
 72
1
 10
3.1641900425659411
 20
4.2435673894733519
 11
3.185180969985296
 21
4.1922155749572232
 72
1
 10
3.185180969985296
 20
4.1922155749572232
 11
3.1913185707917466
 21
4.1389176918927069
 72
1
 10
3.1913185707917466
 20
4.1389176918927069
 11
3.1864741907514254
 21
4.0877294358443201
 72
1
 10
3.1864741907514254
 20
4.0877294358443201
 11
3.1719410506304579
 21
4.0439650709249655
 72
1
 10
3.1719410506304579
 20
4.0439650709249655
 11
3.1238160506304573
 21
3.9758138612475453
 72
1
 10
3.1238160506304573
 20
3.9758138612475453
 11
3.0614808691788435
 21
3.9302725306023842
 72
1
 10
3.0614808691788435
 20
3.9302725306023842
 11
3.0001159498240049
 21
3.9037926918927068
 72
1
 10
3.0001159498240049
 20
3.9037926918927068
 11
3.2158689740175546
 21
3.5846818047959323
 72
1
 10
3.2158689740175546
 20
3.5846818047959323
 11
3.2291088933723926
 21
3.5685366435056101
 72
1
 10
3.2291088933723926
 20
3.5685366435056101
 11
3.246551433694973
 21
3.5527130547959325
 72
1
 10
3.246551433694973
 20
3.5527130547959325
 11
3.2656073812756179
 21
3.5394675910862552
 72
1
 10
3.2656073812756179
 20
3.5394675910862552
 11
3.2836986111143278
 21
3.5317110386669004
 72
1
 10
3.2836986111143278
 20
3.5317110386669004
 11
3.3670191756304564
 21
3.5091122483443198
 72
1
 10
3.3670191756304564
 20
3.5091122483443198
 11
3.3670191756304564
 21
3.469702974150771
 72
1
 10
3.3670191756304564
 20
3.469702974150771
 11
3.1603145385336826
 21
3.469702974150771
 72
1
 10
3.1603145385336826
 20
3.469702974150771
 11
3.1118679659530382
 21
3.4739000507636746
 72
1
 10
3.1118679659530382
 20
3.4739000507636746
 11
3.0779531474046506
 21
3.487467087053997
 72
1
 10
3.0779531474046506
 20
3.487467087053997
 11
3.0514677643401344
 21
3.5123390628604487
 72
1
 10
3.0514677643401344
 20
3.5123390628604487
 11
3.0253094982111022
 21
3.5504509580217389
 72
1
 10
3.0253094982111022
 20
3.5504509580217389
 11
2.8386199820820699
 21
3.844357208021739
 72
1
 10
2.8386199820820699
 20
3.844357208021739
 11
2.7533588933723929
 21
3.867621320924965
 72
1
 10
2.7533588933723929
 20
3.867621320924965
 11
2.7533588933723929
 21
3.5711203128604487
 72
1
 10
2.7533588933723929
 20
3.5711203128604487
 11
2.7607883288562642
 21
3.546248337053997
 72
1
 10
2.7607883288562642
 20
3.546248337053997
 11
2.781136111114328
 21
3.5330084176991581
 72
1
 10
2.781136111114328
 20
3.5330084176991581
 11
2.8767318772433597
 21
3.5091122483443198
 72
1
 10
2.8767318772433597
 20
3.5091122483443198
 11
2.8767318772433597
 21
3.469702974150771
 72
1
 10
2.8767318772433597
 20
3.469702974150771
 11
2.4575010304691665
 21
3.469702974150771
 72
1
 10
2.4575010304691665
 20
3.469702974150771
 11
2.4575010304691665
 21
3.5091122483443198
 72
1
 10
2.4575010304691665
 20
3.5091122483443198
 11
2.539546393372393
 21
3.5330084176991581
 97
0
 92
1
 93
15
 72
1
 10
2.9561880264369083
 20
3.9816298894733522
 11
2.9849355062756184
 21
4.0413814015701259
 72
1
 10
2.9849355062756184
 20
4.0413814015701259
 11
2.9943054659530381
 21
4.1098541838281903
 72
1
 10
2.9943054659530381
 20
4.1098541838281903
 11
2.9834856574852959
 21
4.1913257060056104
 72
1
 10
2.9834856574852959
 20
4.1913257060056104
 11
2.9510262320820693
 21
4.2471213209249647
 72
1
 10
2.9510262320820693
 20
4.2471213209249647
 11
2.8988649417594892
 21
4.2793395668927072
 72
1
 10
2.8988649417594892
 20
4.2793395668927072
 11
2.8289395385336831
 21
4.2900789822152881
 72
1
 10
2.8289395385336831
 20
4.2900789822152881
 11
2.7533588933723929
 21
4.2900789822152881
 72
1
 10
2.7533588933723929
 20
4.2900789822152881
 11
2.7533588933723929
 21
3.9302725306023842
 72
1
 10
2.7533588933723929
 20
3.9302725306023842
 11
2.7704743167594894
 21
3.9280159781830295
 72
1
 10
2.7704743167594894
 20
3.9280159781830295
 11
2.7946976030498116
 21
3.9260754539894811
 72
1
 10
2.7946976030498116
 20
3.9260754539894811
 11
2.8198911514369089
 21
3.9244620467314166
 72
1
 10
2.8198911514369089
 20
3.9244620467314166
 11
2.8392742159530377
 21
3.9238189015701264
 72
1
 10
2.8392742159530377
 20
3.9238189015701264
 11
2.876090118170779
 21
3.9277747987475453
 72
1
 10
2.876090118170779
 20
3.9277747987475453
 11
2.9077414538562638
 21
3.9396424902798035
 72
1
 10
2.9077414538562638
 20
3.9396424902798035
 11
2.9561880264369083
 21
3.9816298894733522
 97
0
 92
1
 93
51
 72
1
 10
3.669180969985296
 20
3.4589677170943198
 11
3.5856885304691661
 21
3.4829484378604487
 72
1
 10
3.5856885304691661
 20
3.4829484378604487
 11
3.5126957129288434
 21
3.5218670366507712
 72
1
 10
3.5126957129288434
 20
3.5218670366507712
 11
3.4513321796627152
 21
3.5746742443120616
 72
1
 10
3.4513321796627152
 20
3.5746742443120616
 11
3.4021606826869095
 21
3.6408849297959325
 72
1
 10
3.4021606826869095
 20
3.6408849297959325
 11
3.3657439740175543
 21
3.7200139620539971
 72
1
 10
3.3657439740175543
 20
3.7200139620539971
 11
3.343214488130458
 21
3.8110120719330296
 72
1
 10
3.343214488130458
 20
3.8110120719330296
 11
3.3357046595014253
 21
3.9128299902798038
 72
1
 10
3.3357046595014253
 20
3.9128299902798038
 11
3.3505635304691661
 21
4.0433219257636743
 72
1
 10
3.3505635304691661
 20
4.0433219257636743
 11
3.3928725022433599
 21
4.1566873491507712
 72
1
 10
3.3928725022433599
 20
4.1566873491507712
 11
3.4587560707917482
 21
4.2497049902798034
 72
1
 10
3.4587560707917482
 20
4.2497049902798034
 11
3.544671393372393
 21
4.3194696072152876
 72
1
 10
3.544671393372393
 20
4.3194696072152876
 11
3.6473805667594887
 21
4.3633975306023842
 72
1
 10
3.6473805667594887
 20
4.3633975306023842
 11
3.7633296595014243
 21
4.3785779741507715
 72
1
 10
3.7633296595014243
 20
4.3785779741507715
 11
3.8350348006304578
 21
4.3740537806023845
 72
1
 10
3.8350348006304578
 20
4.3740537806023845
 11
3.9154556675659413
 21
4.36242726850561
 72
1
 10
3.9154556675659413
 20
4.36242726850561
 11
3.9923281474046504
 21
4.3462765628604485
 72
1
 10
3.9923281474046504
 20
4.3462765628604485
 11
4.0533659498240056
 21
4.3281908773765778
 72
1
 10
4.0533659498240056
 20
4.3281908773765778
 11
4.0533659498240056
 21
4.1104973289894815
 72
1
 10
4.0533659498240056
 20
4.1104973289894815
 11
4.0100867159530384
 21
4.1104973289894815
 72
1
 10
4.0100867159530384
 20
4.1104973289894815
 11
3.9622943772433596
 21
4.2235467241507711
 72
1
 10
3.9622943772433596
 20
4.2235467241507711
 11
3.9506567764369094
 21
4.2403405749572229
 72
1
 10
3.9506567764369094
 20
4.2403405749572229
 11
3.9358034498240051
 21
4.2513239418927071
 72
1
 10
3.9358034498240051
 20
4.2513239418927071
 11
3.8531204861143276
 21
4.2865250507636743
 72
1
 10
3.8531204861143276
 20
4.2865250507636743
 11
3.7633296595014243
 21
4.2991162806023837
 72
1
 10
3.7633296595014243
 20
4.2991162806023837
 11
3.7139973762352958
 21
4.293142238263675
 72
1
 10
3.7139973762352958
 20
4.293142238263675
 11
3.6693473006304571
 21
4.2752201112475454
 72
1
 10
3.6693473006304571
 20
4.2752201112475454
 11
3.6301057431707799
 21
4.2456700860459327
 72
1
 10
3.6301057431707799
 20
4.2456700860459327
 11
3.5969990143401342
 21
4.204812349150771
 72
1
 10
3.5969990143401342
 20
4.204812349150771
 11
3.5703514588965866
 21
4.1528908521749646
 72
1
 10
3.5703514588965866
 20
4.1528908521749646
 11
3.5504874215981999
 21
4.090149546731416
 72
1
 10
3.5504874215981999
 20
4.090149546731416
 11
3.5381332129288441
 21
4.0169141636669004
 72
1
 10
3.5381332129288441
 20
4.0169141636669004
 11
3.5340151433723928
 21
3.9335104338281908
 72
1
 10
3.5340151433723928
 20
3.9335104338281908
 11
3.5386169578885212
 21
3.8469450356427068
 72
1
 10
3.5386169578885212
 20
3.8469450356427068
 11
3.5524224014369081
 21
3.770722631408836
 72
1
 10
3.5524224014369081
 20
3.770722631408836
 11
3.5754328601062642
 21
3.7052410285862551
 72
1
 10
3.5754328601062642
 20
3.7052410285862551
 11
3.6076497199852962
 21
3.650898034634642
 72
1
 10
3.6076497199852962
 20
3.650898034634642
 11
3.6489108086949726
 21
3.6080193804007714
 72
1
 10
3.6489108086949726
 20
3.6080193804007714
 11
3.6990539538562639
 21
3.5769307967314163
 72
1
 10
3.6990539538562639
 20
3.5769307967314163
 11
3.7579197552675541
 21
3.5580356354410938
 72
1
 10
3.7579197552675541
 20
3.5580356354410938
 11
3.8253488127272308
 21
3.5517372483443199
 72
1
 10
3.8253488127272308
 20
3.5517372483443199
 11
3.9083478046627156
 21
3.5623990426991585
 72
1
 10
3.9083478046627156
 20
3.5623990426991585
 11
3.9723019377272322
 21
3.5888844257636747
 72
1
 10
3.9723019377272322
 20
3.5888844257636747
 11
4.0220458893401343
 21
3.6237639620539972
 72
1
 10
4.0220458893401343
 20
3.6237639620539972
 11
4.0624143369207797
 21
3.6596193047959327
 72
1
 10
4.0624143369207797
 20
3.6596193047959327
 11
4.0901915546627166
 21
3.6596193047959327
 72
1
 10
4.0901915546627166
 20
3.6596193047959327
 11
4.0901915546627166
 21
3.5892059983443194
 72
1
 10
4.0901915546627166
 20
3.5892059983443194
 11
4.0281779457917484
 21
3.542372833021739
 72
1
 10
4.0281779457917484
 20
3.542372833021739
 11
3.9487217965981993
 21
3.4978017644733517
 72
1
 10
3.9487217965981993
 20
3.4978017644733517
 11
3.8579662522433611
 21
3.464214062860449
 72
1
 10
3.8579662522433611
 20
3.464214062860449
 11
3.7620433691788437
 21
3.45097414350561
 72
1
 10
3.7620433691788437
 20
3.45097414350561
 11
3.669180969985296
 21
3.4589677170943198
 97
0
 92
1
 93
33
 72
1
 10
4.5562389336949742
 20
3.4496767644733519
 11
4.4580525677675542
 21
3.4583162554007711
 72
1
 10
4.4580525677675542
 20
3.4583162554007711
 11
4.3714954861143287
 21
3.4842347281830293
 72
1
 10
4.3714954861143287
 20
3.4842347281830293
 11
4.2971304407514257
 21
3.525576210037868
 72
1
 10
4.2971304407514257
 20
3.525576210037868
 11
4.2355201836949732
 21
3.5804847281830292
 72
1
 10
4.2355201836949732
 20
3.5804847281830292
 11
4.1869904457917482
 21
3.6481508068120614
 72
1
 10
4.1869904457917482
 20
3.6481508068120614
 11
4.1518669578885223
 21
3.7277649701185132
 72
1
 10
4.1518669578885223
 20
3.7277649701185132
 11
4.1305516857111026
 21
3.8174712453201263
 72
1
 10
4.1305516857111026
 20
3.8174712453201263
 11
4.1234465949852961
 21
3.9154136596346425
 72
1
 10
4.1234465949852961
 20
3.9154136596346425
 11
4.1307942512352955
 21
4.0092463209249649
 72
1
 10
4.1307942512352955
 20
4.0092463209249649
 11
4.1528372199852956
 21
4.096935837053997
 72
1
 10
4.1528372199852956
 20
4.096935837053997
 11
4.1888491907514247
 21
4.1761452624572231
 72
1
 10
4.1888491907514247
 20
4.1761452624572231
 11
4.2381038530498127
 21
4.2445376515701261
 72
1
 10
4.2381038530498127
 20
4.2445376515701261
 11
4.3001978550659423
 21
4.300818397537868
 72
1
 10
4.3001978550659423
 20
4.300818397537868
 11
4.374727844985296
 21
4.3436928935056098
 72
1
 10
4.374727844985296
 20
4.3436928935056098
 11
4.4608039538562636
 21
4.3708214217314163
 72
1
 10
4.4608039538562636
 20
4.3708214217314163
 11
4.5575363127272315
 21
4.3798642644733521
 72
1
 10
4.5575363127272315
 20
4.3798642644733521
 11
4.6612088177675535
 21
4.3705788562072225
 72
1
 10
4.6612088177675535
 20
4.3705788562072225
 11
4.7500307683723939
 21
4.3427226314088356
 72
1
 10
4.7500307683723939
 20
4.3427226314088356
 11
4.8244013580901344
 21
4.299040045723352
 72
1
 10
4.8244013580901344
 20
4.299040045723352
 11
4.8847197804691662
 21
4.242275554795933
 72
1
 10
4.8847197804691662
 20
4.242275554795933
 11
4.9312286010336832
 21
4.1737223793927072
 72
1
 10
4.9312286010336832
 20
4.1737223793927072
 11
4.9641703853078765
 21
4.0946737402798039
 72
1
 10
4.9641703853078765
 20
4.0946737402798039
 11
4.9837890849046493
 21
4.0077105346346418
 72
1
 10
4.9837890849046493
 20
4.0077105346346418
 11
4.9903286514369087
 21
3.9154136596346425
 72
1
 10
4.9903286514369087
 20
3.9154136596346425
 11
4.9793452845014246
 21
3.8030184983443198
 72
1
 10
4.9793452845014246
 20
3.8030184983443198
 11
4.945757582888521
 21
3.6951419862475454
 72
1
 10
4.945757582888521
 20
3.6951419862475454
 11
4.8882681675659407
 21
3.5985704136669003
 72
1
 10
4.8882681675659407
 20
3.5985704136669003
 11
4.849992713936909
 21
3.5566647937072227
 72
1
 10
4.849992713936909
 20
3.5566647937072227
 11
4.8049365143401337
 21
3.520733216086255
 72
1
 10
4.8049365143401337
 20
3.520733216086255
 11
4.7530981826869088
 21
3.4912608118523845
 72
1
 10
4.7530981826869088
 20
3.4912608118523845
 11
4.694476332888522
 21
3.4687327120539968
 72
1
 10
4.694476332888522
 20
3.4687327120539968
 11
4.6289101786546514
 21
3.4544407513685131
 72
1
 10
4.6289101786546514
 20
3.4544407513685131
 11
4.5562389336949742
 21
3.4496767644733519
 97
0
 92
1
 93
28
 72
1
 10
4.5665736111143289
 20
3.5187926918927066
 11
4.6198701080901348
 21
3.5260599549975455
 72
1
 10
4.6198701080901348
 20
3.5260599549975455
 11
4.6660559699852957
 21
3.5478617443120615
 72
1
 10
4.6660559699852957
 20
3.5478617443120615
 11
4.7050535758320713
 21
3.5823407009652874
 72
1
 10
4.7050535758320713
 20
3.5823407009652874
 11
4.7367853046627157
 21
3.6276394660862552
 72
1
 10
4.7367853046627157
 20
3.6276394660862552
 11
4.7613315496223922
 21
3.6828695568120615
 72
1
 10
4.7613315496223922
 20
3.6828695568120615
 11
4.778772703856264
 21
3.7471424902798036
 72
1
 10
4.778772703856264
 20
3.7471424902798036
 11
4.7926613127272306
 21
3.8953985386669001
 72
1
 10
4.7926613127272306
 20
3.8953985386669001
 11
4.7781295586949746
 21
4.0633481354410943
 72
1
 10
4.7781295586949746
 20
4.0633481354410943
 11
4.7596405213965873
 21
4.134242414674965
 72
1
 10
4.7596405213965873
 20
4.134242414674965
 11
4.7332369175659412
 21
4.1944776717314163
 72
1
 10
4.7332369175659412
 20
4.1944776717314163
 11
4.6989201332917485
 21
4.2433275961265782
 72
1
 10
4.6989201332917485
 20
4.2433275961265782
 11
4.6566915546627161
 21
4.2800658773765772
 72
1
 10
4.6566915546627161
 20
4.2800658773765772
 11
4.6060632784530391
 21
4.3030777221346419
 72
1
 10
4.6060632784530391
 20
4.3030777221346419
 11
4.5465474014369089
 21
4.3107483370539974
 72
1
 10
4.5465474014369089
 20
4.3107483370539974
 11
4.490355365146586
 21
4.3029973289894805
 72
1
 10
4.490355365146586
 20
4.3029973289894805
 11
4.4432006272433604
 21
4.2797443047959325
 72
1
 10
4.4432006272433604
 20
4.2797443047959325
 11
4.4044414286546516
 21
4.2434911545943201
 72
1
 10
4.4044414286546516
 20
4.2434911545943201
 11
4.3734360103078771
 21
4.1967397685056103
 72
1
 10
4.3734360103078771
 20
4.1967397685056103
 11
4.3500208137352967
 21
4.1408637604410945
 72
1
 10
4.3500208137352967
 20
4.1408637604410945
 11
4.3340322804691667
 21
4.0772367443120618
 72
1
 10
4.3340322804691667
 20
4.0772367443120618
 11
4.3217570788562636
 21
3.9367372483443197
 72
1
 10
4.3217570788562636
 20
3.9367372483443197
 11
4.3359672603078767
 21
3.7703955144733521
 72
1
 10
4.3359672603078767
 20
3.7703955144733521
 11
4.354054331880457
 21
3.6990174902798034
 72
1
 10
4.354054331880457
 20
3.6990174902798034
 11
4.3798951836949733
 21
3.6379741435056099
 72
1
 10
4.3798951836949733
 20
3.6379741435056099
 11
4.4138100022433608
 21
3.5881539570136742
 72
1
 10
4.4138100022433608
 20
3.5881539570136742
 11
4.4561189740175546
 21
3.5504454136669001
 72
1
 10
4.4561189740175546
 20
3.5504454136669001
 11
4.5069856574852967
 21
3.526705872336255
 72
1
 10
4.5069856574852967
 20
3.526705872336255
 11
4.5665736111143289
 21
3.5187926918927066
 97
0
 75
0
 76
1
 98
0
1001
ACAD
1010
0.0
1020
0.0
1030
0
  0
ENDSEC
  0
SECTION
  2
OBJECTS
  0
DICTIONARY
  5
C
100
AcDbDictionary
280
0
281
1
  3
ACAD_GROUP
350
D
  3
ACAD_LAYOUT
350
1A
  3
ACAD_MLINESTYLE
350
17
  3
ACAD_PLOTSETTINGS
350
19
  3
ACAD_PLOTSTYLENAME
350
E
  3
AcDbVariableDictionary
350
1FA
  3
QCAD_OBJECTS
350
1FB
  0
DICTIONARY
  5
D
100
AcDbDictionary
280
0
281
1
  0
ACDBDICTIONARYWDFLT
  5
E
100
AcDbDictionary
281
1
  3
Normal
350
F
100
AcDbDictionaryWithDefault
340
F
  0
ACDBPLACEHOLDER
  5
F
  0
DICTIONARY
  5
17
100
AcDbDictionary
280
0
281
1
  3
Standard
350
18
  0
MLINESTYLE
  5
18
100
AcDbMlineStyle
  2
STANDARD
 70
0
  3

 62
256
 51
90.0
 52
90.0
 71
2
 49
0.5
 62
256
  6
BYLAYER
 49
-0.5
 62
256
  6
BYLAYER
  0
DICTIONARY
  5
19
100
AcDbDictionary
280
0
281
1
  0
DICTIONARY
  5
1A
100
AcDbDictionary
281
1
  3
Layout1
350
1E
  3
Layout2
350
26
  3
Model
350
22
  0
LAYOUT
  5
1E
100
AcDbPlotSettings
  1

  2
none_device
  4

  6

 40
0.0
 41
0.0
 42
0.0
 43
0.0
 44
0.0
 45
0.0
 46
0.0
 47
0.0
 48
0.0
 49
0.0
140
0.0
141
0.0
142
1.0
143
1.0
 70
688
 72
0
 73
0
 74
5
  7

 75
16
147
1.0
148
0.0
149
0.0
100
AcDbLayout
  1
Layout1
 70
1
 71
1
 10
0.0
 20
0.0
 11
420.0
 21
297.0
 12
0.0
 22
0.0
 32
0.0
 14
100000000000000000000.0
 24
100000000000000000000.0
 34
100000000000000000000.0
 15
-100000000000000000000.0
 25
-100000000000000000000.0
 35
-100000000000000000000.0
146
0.0
 13
0.0
 23
0.0
 33
0.0
 16
1.0
 26
0.0
 36
0.0
 17
0.0
 27
1.0
 37
0.0
 76
0
330
1B
  0
LAYOUT
  5
22
100
AcDbPlotSettings
  1

  2
none_device
  4

  6

 40
0.0
 41
0.0
 42
0.0
 43
0.0
 44
0.0
 45
0.0
 46
0.0
 47
0.0
 48
0.0
 49
0.0
140
0.0
141
0.0
142
1.0
143
1.0
 70
1712
 72
0
 73
0
 74
0
  7

 75
0
147
1.0
148
0.0
149
0.0
100
AcDbLayout
  1
Model
 70
1
 71
0
 10
0.0
 20
0.0
 11
12.0
 21
9.0
 12
0.0
 22
0.0
 32
0.0
 14
0.0
 24
0.0
 34
0.0
 15
0.0
 25
0.0
 35
0.0
146
0.0
 13
0.0
 23
0.0
 33
0.0
 16
1.0
 26
0.0
 36
0.0
 17
0.0
 27
1.0
 37
0.0
 76
0
330
1F
  0
LAYOUT
  5
26
100
AcDbPlotSettings
  1

  2
none_device
  4

  6

 40
0.0
 41
0.0
 42
0.0
 43
0.0
 44
0.0
 45
0.0
 46
0.0
 47
0.0
 48
0.0
 49
0.0
140
0.0
141
0.0
142
1.0
143
1.0
 70
688
 72
0
 73
0
 74
5
  7

 75
16
147
1.0
148
0.0
149
0.0
100
AcDbLayout
  1
Layout2
 70
1
 71
2
 10
0.0
 20
0.0
 11
12.0
 21
9.0
 12
0.0
 22
0.0
 32
0.0
 14
0.0
 24
0.0
 34
0.0
 15
0.0
 25
0.0
 35
0.0
146
0.0
 13
0.0
 23
0.0
 33
0.0
 16
1.0
 26
0.0
 36
0.0
 17
0.0
 27
1.0
 37
0.0
 76
0
330
23
  0
DICTIONARY
  5
1FA
100
AcDbDictionary
281
1
  3
DIMASSOC
350
1FD
  3
HIDETEXT
350
1FC
  0
DICTIONARYVAR
  5
1FC
100
DictionaryVariables
280
0
  1
2
  0
DICTIONARYVAR
  5
1FD
100
DictionaryVariables
280
0
  1
1
  0
DICTIONARY
  5
1FB
100
AcDbDictionary
281
1
  3
ColorSettings/BackgroundColor
350
1FE
  3
ColorSettings/ColorMode
350
1FF
  3
Grid/DisplayGrid00
350
200
  3
Grid/DisplayGrid01
350
201
  3
Grid/DisplayGrid02
350
202
  3
Grid/DisplayGrid03
350
203
  3
Grid/GridSpacingX00
350
204
  3
Grid/GridSpacingX01
350
205
  3
Grid/GridSpacingX02
350
206
  3
Grid/GridSpacingX03
350
207
  3
Grid/GridSpacingY00
350
208
  3
Grid/GridSpacingY01
350
209
  3
Grid/GridSpacingY02
350
20A
  3
Grid/GridSpacingY03
350
20B
  3
Grid/IsometricGrid00
350
20C
  3
Grid/IsometricGrid01
350
20D
  3
Grid/IsometricGrid02
350
20E
  3
Grid/IsometricGrid03
350
20F
  3
Grid/IsometricProjection00
350
210
  3
Grid/IsometricProjection01
350
211
  3
Grid/IsometricProjection02
350
212
  3
Grid/IsometricProjection03
350
213
  3
Grid/MetaGridSpacingX00
350
214
  3
Grid/MetaGridSpacingX01
350
215
  3
Grid/MetaGridSpacingX02
350
216
  3
Grid/MetaGridSpacingX03
350
217
  3
Grid/MetaGridSpacingY00
350
218
  3
Grid/MetaGridSpacingY01
350
219
  3
Grid/MetaGridSpacingY02
350
21A
  3
Grid/MetaGridSpacingY03
350
21B
  3
MultiPageSettings/Columns
350
21C
  3
MultiPageSettings/GlueMarginsBottom
350
21D
  3
MultiPageSettings/GlueMarginsLeft
350
21E
  3
MultiPageSettings/GlueMarginsRight
350
21F
  3
MultiPageSettings/GlueMarginsTop
350
220
  3
MultiPageSettings/PrintCropMarks
350
221
  3
MultiPageSettings/Rows
350
222
  3
PageSettings/OffsetX
350
223
  3
PageSettings/OffsetY
350
224
  3
PageSettings/PageOrientation
350
225
  3
PageSettings/PaperHeight
350
226
  3
PageSettings/PaperSizeName
350
227
  3
PageSettings/PaperWidth
350
228
  3
PageSettings/Scale
350
229
  3
PageSettings/ShowPaperBorders
350
22A
  3
QCADVersion
350
22B
  3
UnitSettings/Measurement
350
22C
  3
UnitSettings/PaperUnit
350
22D
  0
XRECORD
  5
1FE
330
1FB
100
AcDbXrecord
280
1
1000
White
  0
XRECORD
  5
1FF
330
1FB
100
AcDbXrecord
280
1
1000
FullColor
  0
XRECORD
  5
200
330
1FB
100
AcDbXrecord
280
1
290
1
  0
XRECORD
  5
201
330
1FB
100
AcDbXrecord
280
1
290
1
  0
XRECORD
  5
202
330
1FB
100
AcDbXrecord
280
1
290
1
  0
XRECORD
  5
203
330
1FB
100
AcDbXrecord
280
1
290
1
  0
XRECORD
  5
204
330
1FB
100
AcDbXrecord
280
1
1000
auto
  0
XRECORD
  5
205
330
1FB
100
AcDbXrecord
280
1
1000
auto
  0
XRECORD
  5
206
330
1FB
100
AcDbXrecord
280
1
1000
auto
  0
XRECORD
  5
207
330
1FB
100
AcDbXrecord
280
1
1000
auto
  0
XRECORD
  5
208
330
1FB
100
AcDbXrecord
280
1
1000
auto
  0
XRECORD
  5
209
330
1FB
100
AcDbXrecord
280
1
1000
auto
  0
XRECORD
  5
20A
330
1FB
100
AcDbXrecord
280
1
1000
auto
  0
XRECORD
  5
20B
330
1FB
100
AcDbXrecord
280
1
1000
auto
  0
XRECORD
  5
20C
330
1FB
100
AcDbXrecord
280
1
290
0
  0
XRECORD
  5
20D
330
1FB
100
AcDbXrecord
280
1
290
0
  0
XRECORD
  5
20E
330
1FB
100
AcDbXrecord
280
1
290
0
  0
XRECORD
  5
20F
330
1FB
100
AcDbXrecord
280
1
290
0
  0
XRECORD
  5
210
330
1FB
100
AcDbXrecord
280
1
 90
0
  0
XRECORD
  5
211
330
1FB
100
AcDbXrecord
280
1
 90
0
  0
XRECORD
  5
212
330
1FB
100
AcDbXrecord
280
1
 90
0
  0
XRECORD
  5
213
330
1FB
100
AcDbXrecord
280
1
 90
0
  0
XRECORD
  5
214
330
1FB
100
AcDbXrecord
280
1
1000
auto
  0
XRECORD
  5
215
330
1FB
100
AcDbXrecord
280
1
1000
auto
  0
XRECORD
  5
216
330
1FB
100
AcDbXrecord
280
1
1000
auto
  0
XRECORD
  5
217
330
1FB
100
AcDbXrecord
280
1
1000
auto
  0
XRECORD
  5
218
330
1FB
100
AcDbXrecord
280
1
1000
auto
  0
XRECORD
  5
219
330
1FB
100
AcDbXrecord
280
1
1000
auto
  0
XRECORD
  5
21A
330
1FB
100
AcDbXrecord
280
1
1000
auto
  0
XRECORD
  5
21B
330
1FB
100
AcDbXrecord
280
1
1000
auto
  0
XRECORD
  5
21C
330
1FB
100
AcDbXrecord
280
1
 90
1
  0
XRECORD
  5
21D
330
1FB
100
AcDbXrecord
280
1
 40
0.5
  0
XRECORD
  5
21E
330
1FB
100
AcDbXrecord
280
1
 40
0.5
  0
XRECORD
  5
21F
330
1FB
100
AcDbXrecord
280
1
 40
0.5
  0
XRECORD
  5
220
330
1FB
100
AcDbXrecord
280
1
 40
0.5
  0
XRECORD
  5
221
330
1FB
100
AcDbXrecord
280
1
290
0
  0
XRECORD
  5
222
330
1FB
100
AcDbXrecord
280
1
 90
1
  0
XRECORD
  5
223
330
1FB
100
AcDbXrecord
280
1
 40
0.0
  0
XRECORD
  5
224
330
1FB
100
AcDbXrecord
280
1
 40
0.0
  0
XRECORD
  5
225
330
1FB
100
AcDbXrecord
280
1
1000
Portrait
  0
XRECORD
  5
226
330
1FB
100
AcDbXrecord
280
1
 40
12.0
  0
XRECORD
  5
227
330
1FB
100
AcDbXrecord
280
1
1000
Custom
  0
XRECORD
  5
228
330
1FB
100
AcDbXrecord
280
1
 40
16.0
  0
XRECORD
  5
229
330
1FB
100
AcDbXrecord
280
1
1000
1" = 1"
  0
XRECORD
  5
22A
330
1FB
100
AcDbXrecord
280
1
290
1
  0
XRECORD
  5
22B
330
1FB
100
AcDbXrecord
280
1
1000
3.13.1
  0
XRECORD
  5
22C
330
1FB
100
AcDbXrecord
280
1
 40
0.0
  0
XRECORD
  5
22D
330
1FB
100
AcDbXrecord
280
1
 90
1
  0
ENDSEC
  0
EOF
