 0
SECTION
 2
ENTITIES
  0
LINE
 8
Layer0
10
0.125
20
1.25
30
0.0
11
0.0871515052637672
21
1.15002095885546
31
0.0
  0
LINE
 8
Layer0
10
0.0871515052637672
20
1.15002095885546
30
0.0
11
0.0559586395688372
21
1.0477696881948
31
0.0
  0
LINE
 8
Layer0
10
0.0559586395688372
20
1.0477696881948
30
0.0
11
0.0315564020022547
21
0.943688719599549
31
0.0
  0
LINE
 8
Layer0
10
0.0315564020022547
20
0.943688719599549
30
0.0
11
0.0140504026040047
21
0.838228503370634
31
0.0
  0
LINE
 8
Layer0
10
0.0140504026040047
20
0.838228503370634
30
0.0
11
0.00351640529907082
21
0.731845459031977
31
0.0
  0
LINE
 8
Layer0
10
0.00351640529907082
20
0.731845459031977
30
0.0
11
0.0
21
0.625
31
0.0
  0
LINE
 8
Layer0
10
0.0
20
0.625
30
0.0
11
0.00351640529907105
21
0.518154540968024
31
0.0
  0
LINE
 8
Layer0
10
0.00351640529907105
20
0.518154540968024
30
0.0
11
0.0140504026040045
21
0.411771496629367
31
0.0
  0
LINE
 8
Layer0
10
0.0140504026040045
20
0.411771496629367
30
0.0
11
0.0315564020022547
21
0.306311280400451
31
0.0
  0
LINE
 8
Layer0
10
0.0315564020022547
20
0.306311280400451
30
0.0
11
0.055958639568837
21
0.202230311805203
31
0.0
  0
LINE
 8
Layer0
10
0.055958639568837
20
0.202230311805203
30
0.0
11
0.0871515052637668
21
0.0999790411445443
31
0.0
  0
LINE
 8
Layer0
10
0.0871515052637668
20
0.0999790411445443
30
0.0
11
0.125
21
4.44089209850063e-016
31
0.0
  0
LINE
 8
Layer0
10
0.125
20
4.44089209850063e-016
30
0.0
11
38.375
21
4.44089209850063e-016
31
0.0
  0
LINE
 8
Layer0
10
38.375
20
1.25
30
0.0
11
38.4128484947362
21
1.15002095885546
31
0.0
  0
LINE
 8
Layer0
10
38.4128484947362
20
1.15002095885546
30
0.0
11
38.4440413604312
21
1.0477696881948
31
0.0
  0
LINE
 8
Layer0
10
38.4440413604312
20
1.0477696881948
30
0.0
11
38.4684435979977
21
0.943688719599549
31
0.0
  0
LINE
 8
Layer0
10
38.4684435979977
20
0.943688719599549
30
0.0
11
38.485949597396
21
0.838228503370634
31
0.0
  0
LINE
 8
Layer0
10
38.485949597396
20
0.838228503370634
30
0.0
11
38.4964835947009
21
0.731845459031977
31
0.0
  0
LINE
 8
Layer0
10
38.4964835947009
20
0.731845459031977
30
0.0
11
38.5
21
0.625
31
0.0
  0
LINE
 8
Layer0
10
38.5
20
0.625
30
0.0
11
38.4964835947009
21
0.518154540968024
31
0.0
  0
LINE
 8
Layer0
10
38.4964835947009
20
0.518154540968024
30
0.0
11
38.485949597396
21
0.411771496629367
31
0.0
  0
LINE
 8
Layer0
10
38.485949597396
20
0.411771496629367
30
0.0
11
38.4684435979977
21
0.306311280400451
31
0.0
  0
LINE
 8
Layer0
10
38.4684435979977
20
0.306311280400451
30
0.0
11
38.4440413604312
21
0.202230311805203
31
0.0
  0
LINE
 8
Layer0
10
38.4440413604312
20
0.202230311805203
30
0.0
11
38.4128484947362
21
0.0999790411445443
31
0.0
  0
LINE
 8
Layer0
10
38.4128484947362
20
0.0999790411445443
30
0.0
11
38.375
21
4.44089209850063e-016
31
0.0
  0
LINE
 8
Layer0
10
38.375
20
1.25
30
0.0
11
0.125
21
1.25
31
0.0
  0
LINE
 8
Layer0
10
37.8125
20
0.625
30
0.0
11
37.8103703641431
21
0.641176190318908
31
0.0
  0
LINE
 8
Layer0
10
37.8103703641431
20
0.641176190318908
30
0.0
11
37.8041265877365
21
0.65625
31
0.0
  0
LINE
 8
Layer0
10
37.8041265877365
20
0.65625
30
0.0
11
37.7941941738242
21
0.669194173824159
31
0.0
  0
LINE
 8
Layer0
10
37.7941941738242
20
0.669194173824159
30
0.0
11
37.78125
21
0.679126587736528
31
0.0
  0
LINE
 8
Layer0
10
37.78125
20
0.679126587736528
30
0.0
11
37.7661761903189
21
0.685370364143067
31
0.0
  0
LINE
 8
Layer0
10
37.7661761903189
20
0.685370364143067
30
0.0
11
37.75
21
0.6875
31
0.0
  0
LINE
 8
Layer0
10
37.75
20
0.6875
30
0.0
11
37.7338238096811
21
0.685370364143067
31
0.0
  0
LINE
 8
Layer0
10
37.7338238096811
20
0.685370364143067
30
0.0
11
37.71875
21
0.679126587736528
31
0.0
  0
LINE
 8
Layer0
10
37.71875
20
0.679126587736528
30
0.0
11
37.7058058261758
21
0.669194173824159
31
0.0
  0
LINE
 8
Layer0
10
37.7058058261758
20
0.669194173824159
30
0.0
11
37.6958734122635
21
0.65625
31
0.0
  0
LINE
 8
Layer0
10
37.6958734122635
20
0.65625
30
0.0
11
37.6896296358569
21
0.641176190318908
31
0.0
  0
LINE
 8
Layer0
10
37.6896296358569
20
0.641176190318908
30
0.0
11
37.6875
21
0.625
31
0.0
  0
LINE
 8
Layer0
10
37.6875
20
0.625
30
0.0
11
37.6896296358569
21
0.608823809681093
31
0.0
  0
LINE
 8
Layer0
10
37.6896296358569
20
0.608823809681093
30
0.0
11
37.6958734122635
21
0.59375
31
0.0
  0
LINE
 8
Layer0
10
37.6958734122635
20
0.59375
30
0.0
11
37.7058058261758
21
0.580805826175841
31
0.0
  0
LINE
 8
Layer0
10
37.7058058261758
20
0.580805826175841
30
0.0
11
37.71875
21
0.570873412263473
31
0.0
  0
LINE
 8
Layer0
10
37.71875
20
0.570873412263473
30
0.0
11
37.7338238096811
21
0.564629635856933
31
0.0
  0
LINE
 8
Layer0
10
37.7338238096811
20
0.564629635856933
30
0.0
11
37.75
21
0.5625
31
0.0
  0
LINE
 8
Layer0
10
37.75
20
0.5625
30
0.0
11
37.7661761903189
21
0.564629635856933
31
0.0
  0
LINE
 8
Layer0
10
37.7661761903189
20
0.564629635856933
30
0.0
11
37.78125
21
0.570873412263473
31
0.0
  0
LINE
 8
Layer0
10
37.78125
20
0.570873412263473
30
0.0
11
37.7941941738242
21
0.580805826175841
31
0.0
  0
LINE
 8
Layer0
10
37.7941941738242
20
0.580805826175841
30
0.0
11
37.8041265877365
21
0.59375
31
0.0
  0
LINE
 8
Layer0
10
37.8041265877365
20
0.59375
30
0.0
11
37.8103703641431
21
0.608823809681093
31
0.0
  0
LINE
 8
Layer0
10
37.8103703641431
20
0.608823809681093
30
0.0
11
37.8125
21
0.625
31
0.0
  0
LINE
 8
Layer0
10
37.75
20
0.6875
30
0.0
11
37.75
21
0.625
31
0.0
  0
LINE
 8
Layer0
10
37.8125
20
0.625
30
0.0
11
37.75
21
0.625
31
0.0
  0
LINE
 8
Layer0
10
37.75
20
0.625
30
0.0
11
37.75
21
0.5625
31
0.0
  0
LINE
 8
Layer0
10
37.75
20
0.625
30
0.0
11
37.6875
21
0.625
31
0.0
  0
LINE
 8
Layer0
10
0.8125
20
0.625
30
0.0
11
0.810370364143067
21
0.641176190318908
31
0.0
  0
LINE
 8
Layer0
10
0.810370364143067
20
0.641176190318908
30
0.0
11
0.804126587736527
21
0.65625
31
0.0
  0
LINE
 8
Layer0
10
0.804126587736527
20
0.65625
30
0.0
11
0.794194173824159
21
0.669194173824159
31
0.0
  0
LINE
 8
Layer0
10
0.794194173824159
20
0.669194173824159
30
0.0
11
0.78125
21
0.679126587736528
31
0.0
  0
LINE
 8
Layer0
10
0.78125
20
0.679126587736528
30
0.0
11
0.766176190318908
21
0.685370364143067
31
0.0
  0
LINE
 8
Layer0
10
0.766176190318908
20
0.685370364143067
30
0.0
11
0.75
21
0.6875
31
0.0
  0
LINE
 8
Layer0
10
0.75
20
0.6875
30
0.0
11
0.733823809681093
21
0.685370364143067
31
0.0
  0
LINE
 8
Layer0
10
0.733823809681093
20
0.685370364143067
30
0.0
11
0.71875
21
0.679126587736528
31
0.0
  0
LINE
 8
Layer0
10
0.71875
20
0.679126587736528
30
0.0
11
0.705805826175841
21
0.669194173824159
31
0.0
  0
LINE
 8
Layer0
10
0.705805826175841
20
0.669194173824159
30
0.0
11
0.695873412263473
21
0.65625
31
0.0
  0
LINE
 8
Layer0
10
0.695873412263473
20
0.65625
30
0.0
11
0.689629635856933
21
0.641176190318908
31
0.0
  0
LINE
 8
Layer0
10
0.689629635856933
20
0.641176190318908
30
0.0
11
0.6875
21
0.625
31
0.0
  0
LINE
 8
Layer0
10
0.6875
20
0.625
30
0.0
11
0.689629635856933
21
0.608823809681093
31
0.0
  0
LINE
 8
Layer0
10
0.689629635856933
20
0.608823809681093
30
0.0
11
0.695873412263473
21
0.59375
31
0.0
  0
LINE
 8
Layer0
10
0.695873412263473
20
0.59375
30
0.0
11
0.705805826175841
21
0.580805826175841
31
0.0
  0
LINE
 8
Layer0
10
0.705805826175841
20
0.580805826175841
30
0.0
11
0.71875
21
0.570873412263473
31
0.0
  0
LINE
 8
Layer0
10
0.71875
20
0.570873412263473
30
0.0
11
0.733823809681092
21
0.564629635856933
31
0.0
  0
LINE
 8
Layer0
10
0.733823809681092
20
0.564629635856933
30
0.0
11
0.75
21
0.5625
31
0.0
  0
LINE
 8
Layer0
10
0.75
20
0.5625
30
0.0
11
0.766176190318907
21
0.564629635856933
31
0.0
  0
LINE
 8
Layer0
10
0.766176190318907
20
0.564629635856933
30
0.0
11
0.78125
21
0.570873412263473
31
0.0
  0
LINE
 8
Layer0
10
0.78125
20
0.570873412263473
30
0.0
11
0.794194173824159
21
0.580805826175841
31
0.0
  0
LINE
 8
Layer0
10
0.794194173824159
20
0.580805826175841
30
0.0
11
0.804126587736527
21
0.59375
31
0.0
  0
LINE
 8
Layer0
10
0.804126587736527
20
0.59375
30
0.0
11
0.810370364143067
21
0.608823809681093
31
0.0
  0
LINE
 8
Layer0
10
0.810370364143067
20
0.608823809681093
30
0.0
11
0.8125
21
0.625
31
0.0
  0
LINE
 8
Layer0
10
0.75
20
0.6875
30
0.0
11
0.75
21
0.625
31
0.0
  0
LINE
 8
Layer0
10
0.8125
20
0.625
30
0.0
11
0.75
21
0.625
31
0.0
  0
LINE
 8
Layer0
10
0.75
20
0.625
30
0.0
11
0.75
21
0.5625
31
0.0
  0
LINE
 8
Layer0
10
0.75
20
0.625
30
0.0
11
0.6875
21
0.625
31
0.0
  0
LINE
 8
Layer0
10
14.0625
20
0.625
30
0.0
11
14.0603703641431
21
0.641176190318908
31
0.0
  0
LINE
 8
Layer0
10
14.0603703641431
20
0.641176190318908
30
0.0
11
14.0541265877365
21
0.65625
31
0.0
  0
LINE
 8
Layer0
10
14.0541265877365
20
0.65625
30
0.0
11
14.0441941738242
21
0.669194173824159
31
0.0
  0
LINE
 8
Layer0
10
14.0441941738242
20
0.669194173824159
30
0.0
11
14.03125
21
0.679126587736528
31
0.0
  0
LINE
 8
Layer0
10
14.03125
20
0.679126587736528
30
0.0
11
14.0161761903189
21
0.685370364143067
31
0.0
  0
LINE
 8
Layer0
10
14.0161761903189
20
0.685370364143067
30
0.0
11
14.0
21
0.6875
31
0.0
  0
LINE
 8
Layer0
10
14.0
20
0.6875
30
0.0
11
13.9838238096811
21
0.685370364143067
31
0.0
  0
LINE
 8
Layer0
10
13.9838238096811
20
0.685370364143067
30
0.0
11
13.96875
21
0.679126587736528
31
0.0
  0
LINE
 8
Layer0
10
13.96875
20
0.679126587736528
30
0.0
11
13.9558058261758
21
0.669194173824159
31
0.0
  0
LINE
 8
Layer0
10
13.9558058261758
20
0.669194173824159
30
0.0
11
13.9458734122635
21
0.65625
31
0.0
  0
LINE
 8
Layer0
10
13.9458734122635
20
0.65625
30
0.0
11
13.9396296358569
21
0.641176190318908
31
0.0
  0
LINE
 8
Layer0
10
13.9396296358569
20
0.641176190318908
30
0.0
11
13.9375
21
0.625
31
0.0
  0
LINE
 8
Layer0
10
13.9375
20
0.625
30
0.0
11
13.9396296358569
21
0.608823809681093
31
0.0
  0
LINE
 8
Layer0
10
13.9396296358569
20
0.608823809681093
30
0.0
11
13.9458734122635
21
0.59375
31
0.0
  0
LINE
 8
Layer0
10
13.9458734122635
20
0.59375
30
0.0
11
13.9558058261758
21
0.580805826175841
31
0.0
  0
LINE
 8
Layer0
10
13.9558058261758
20
0.580805826175841
30
0.0
11
13.96875
21
0.570873412263473
31
0.0
  0
LINE
 8
Layer0
10
13.96875
20
0.570873412263473
30
0.0
11
13.9838238096811
21
0.564629635856933
31
0.0
  0
LINE
 8
Layer0
10
13.9838238096811
20
0.564629635856933
30
0.0
11
14.0
21
0.5625
31
0.0
  0
LINE
 8
Layer0
10
14.0
20
0.5625
30
0.0
11
14.0161761903189
21
0.564629635856933
31
0.0
  0
LINE
 8
Layer0
10
14.0161761903189
20
0.564629635856933
30
0.0
11
14.03125
21
0.570873412263473
31
0.0
  0
LINE
 8
Layer0
10
14.03125
20
0.570873412263473
30
0.0
11
14.0441941738242
21
0.580805826175841
31
0.0
  0
LINE
 8
Layer0
10
14.0441941738242
20
0.580805826175841
30
0.0
11
14.0541265877365
21
0.59375
31
0.0
  0
LINE
 8
Layer0
10
14.0541265877365
20
0.59375
30
0.0
11
14.0603703641431
21
0.608823809681093
31
0.0
  0
LINE
 8
Layer0
10
14.0603703641431
20
0.608823809681093
30
0.0
11
14.0625
21
0.625
31
0.0
  0
LINE
 8
Layer0
10
24.4375
20
0.625
30
0.0
11
24.4396296358569
21
0.608823809681093
31
0.0
  0
LINE
 8
Layer0
10
24.4396296358569
20
0.608823809681093
30
0.0
11
24.4458734122635
21
0.59375
31
0.0
  0
LINE
 8
Layer0
10
24.4458734122635
20
0.59375
30
0.0
11
24.4558058261758
21
0.580805826175841
31
0.0
  0
LINE
 8
Layer0
10
24.4558058261758
20
0.580805826175841
30
0.0
11
24.46875
21
0.570873412263473
31
0.0
  0
LINE
 8
Layer0
10
24.46875
20
0.570873412263473
30
0.0
11
24.4838238096811
21
0.564629635856933
31
0.0
  0
LINE
 8
Layer0
10
24.4838238096811
20
0.564629635856933
30
0.0
11
24.5
21
0.5625
31
0.0
  0
LINE
 8
Layer0
10
24.5
20
0.5625
30
0.0
11
24.5161761903189
21
0.564629635856933
31
0.0
  0
LINE
 8
Layer0
10
24.5161761903189
20
0.564629635856933
30
0.0
11
24.53125
21
0.570873412263473
31
0.0
  0
LINE
 8
Layer0
10
24.53125
20
0.570873412263473
30
0.0
11
24.5441941738242
21
0.580805826175841
31
0.0
  0
LINE
 8
Layer0
10
24.5441941738242
20
0.580805826175841
30
0.0
11
24.5541265877365
21
0.59375
31
0.0
  0
LINE
 8
Layer0
10
24.5541265877365
20
0.59375
30
0.0
11
24.5603703641431
21
0.608823809681093
31
0.0
  0
LINE
 8
Layer0
10
24.5603703641431
20
0.608823809681093
30
0.0
11
24.5625
21
0.625
31
0.0
  0
LINE
 8
Layer0
10
24.5625
20
0.625
30
0.0
11
24.5603703641431
21
0.641176190318908
31
0.0
  0
LINE
 8
Layer0
10
24.5603703641431
20
0.641176190318908
30
0.0
11
24.5541265877365
21
0.65625
31
0.0
  0
LINE
 8
Layer0
10
24.5541265877365
20
0.65625
30
0.0
11
24.5441941738242
21
0.669194173824159
31
0.0
  0
LINE
 8
Layer0
10
24.5441941738242
20
0.669194173824159
30
0.0
11
24.53125
21
0.679126587736528
31
0.0
  0
LINE
 8
Layer0
10
24.53125
20
0.679126587736528
30
0.0
11
24.5161761903189
21
0.685370364143067
31
0.0
  0
LINE
 8
Layer0
10
24.5161761903189
20
0.685370364143067
30
0.0
11
24.5
21
0.6875
31
0.0
  0
LINE
 8
Layer0
10
24.5
20
0.6875
30
0.0
11
24.4838238096811
21
0.685370364143067
31
0.0
  0
LINE
 8
Layer0
10
24.4838238096811
20
0.685370364143067
30
0.0
11
24.46875
21
0.679126587736528
31
0.0
  0
LINE
 8
Layer0
10
24.46875
20
0.679126587736528
30
0.0
11
24.4558058261758
21
0.669194173824159
31
0.0
  0
LINE
 8
Layer0
10
24.4558058261758
20
0.669194173824159
30
0.0
11
24.4458734122635
21
0.65625
31
0.0
  0
LINE
 8
Layer0
10
24.4458734122635
20
0.65625
30
0.0
11
24.4396296358569
21
0.641176190318908
31
0.0
  0
LINE
 8
Layer0
10
24.4396296358569
20
0.641176190318908
30
0.0
11
24.4375
21
0.625
31
0.0
  0
LINE
 8
Layer0
10
24.5
20
0.6875
30
0.0
11
24.5
21
0.625
31
0.0
  0
LINE
 8
Layer0
10
24.5625
20
0.625
30
0.0
11
24.5
21
0.625
31
0.0
  0
LINE
 8
Layer0
10
24.5
20
0.625
30
0.0
11
24.5
21
0.5625
31
0.0
  0
LINE
 8
Layer0
10
24.5
20
0.625
30
0.0
11
24.4375
21
0.625
31
0.0
  0
LINE
 8
Layer0
10
14.0
20
0.6875
30
0.0
11
14.0
21
0.625
31
0.0
  0
LINE
 8
Layer0
10
14.0625
20
0.625
30
0.0
11
14.0
21
0.625
31
0.0
  0
LINE
 8
Layer0
10
14.0
20
0.625
30
0.0
11
14.0
21
0.5625
31
0.0
  0
LINE
 8
Layer0
10
14.0
20
0.625
30
0.0
11
13.9375
21
0.625
31
0.0
 0
ENDSEC
 0
EOF
